» Cifras.com.br » Letras de músicas » Notícias » TV Cifras » Guitar Pro » Gospel

Início » Sertanejo » João Bosco e Vinícius » »

Chora, Me Liga

João Bosco e Vinícius

Chora, Me Liga

João Bosco e Vinícius Escute esta e outras músicas enquanto navega no Cifras

Autor:

Tom

Formatação

colunas A+ A- cores

Nível

Iniciante

Nível: Iniciante

Transcrição

enviada por IRAJ


  Introdução:        

    C                                G/B      G      Am               F   
e|--3--3-3--0--0-0---------------------------------------0--0-0-0-0-0--1-0--1--|  
B|--5--5-5--1--1-1--1--1-1--1--1-1-1--3-3--1--1-1--1--1--1--1-1-1-1-1--3-1--1--|  
G|------------------0--0-0--2--0-0-0--4-4--0--2-2--0--2---------------------2--|  
D|--------------------------------------------------------------------------3--|  
A|-----------------------------------------------------------------------------|  
E|-----------------------------------------------------------------------------| 2X  

C       
Não era pra você se apaixonar        
G       
Era só pra gente ficar        
      Am                       F       
Eu te avisei meu bem eu te avisei        
C       
Você sabia que eu era assim        
               G/B       
Paixão de uma noite que logo tem fim        
       Am                    F   Em   
Eu te falei meu bem eu te falei        

                      Dm       
Não vai ser tão fácil assim        
        Em       F       
Você me ter nas mãos        
     C                      G/B                          
Logo você que era acostumada        
                    Am       
A brincar com outro coração        

                  Dm   Em   
Não venha me perguntar        
               F       
Qual a melhor saída        
                     Dm       
Eu sofri muito por amor        
         F              G   (pausa)    
Agora eu vou curtir a vida        

C       
Chora, me liga, implora        
               G       
Meu beijo de novo        
          Am       
Me pede socorro       
                    F       
Quem sabe eu vou te salvar        

C       
Chora, me liga, implora        
         G/B       
Pelo meu amor        
          Am       
Pede por favor        
             F              G       C       
Quem sabe um dia eu volto a te procurar    

    C                                G/B      G      Am               F   
e|--3--3-3--0--0-0---------------------------------------0--0-0-0-0-0--1-0----5--3-|  
B|--5--5-5--1--1-1--1--1-1--1--1-1-1--3-3--1--1-1--1--1--1--1-1-1-1-1--3-1----6--5-|  
G|------------------0--0-0--2--0-0-0--4-3--0--2-2--0--2--------------------------5-|  
D|---------------------------------------------------------------------------------|  
A|---------------------------------------------------------------------------------|  
E|---------------------------------------------------------------------------------|     






  

top cifras joão bosco e vinícius
top cifras sertanejo
ver mais cifras desse artista var letras desse artista
Top cifras » Top artistas »
Anuncie no Cifras Termos de Uso Política de Privacidade Material de DivulgaçãoFale Conosco
Petaxxon Comunicação Online
Cifras.com.br - Melhor e mais completo site de cifras e tablaturas do Brasil
Mais de 1 milhão de cifras cadastradas desde 2003
As informações contidas no Cifras.com.br são colaborações de seus usuários e podem conter erros, sendo assim, não se responsabiliza sobre nenhuma destas.
R7 Música
close
 
redimensionar