» Cifras.com.br » Letras de músicas » Notícias » TV Cifras » Guitar Pro » Gospel
Logo Cifras.com.br

Início » Católicas » Adrielle » »

Tentei fugir

Adrielle

Tentei fugir

Adrielle Escute esta e outras músicas enquanto navega no Cifras

Autor:

Formatação

colunas A+ A- cores

Nível

Iniciante

Nível: Iniciante

Transcrição

anônimo


  G  
Eu não queria vir  
Em  
eu não queria servir  
C               D  
eu não queria falar  
G  
eu não queria ouvir  
Em  
que o Senhor veio   
C             D  
veio me salvar  
  
solo: G Em C D 
  
e|----10--8-7----------10--8-7-------------------------------  
b|--8---------8------8---------8-------8-10brp810br-10p8--8--  
g|7----------------7----------------7--------------------9---  
d|-----------------------------------------------------------  
a|-----------------------------------------------------------  
e|-----------------------------------------------------------  
  
e|----10--8-7----------10--8-7-8~---\15~-15-15-15p14-14-14p12-12-12p10-10-10h8h7-----  
b|--8---------8------8------------------------------------------------------------10~  
g|7----------------7-----------------------------------------------------------------  
d|-----------------------------------------------------------------------------------  
a|-----------------------------------------------------------------------------------  
e|-----------------------------------------------------------------------------------
tablatura
G Eu não queria vir Em eu não queria servir C D eu não queria falar G eu não queria ouvir Em que o senhor veio C D veio me salvar G Em C eu tentei fugir do teu amor D mas precisava ver G Em C para enxergar que sem o Salvador D a minha vida não tem sabor
ocultar tablaturaOcultar
tablatura
riff: e|--------14h15~------14h15--------------| b|----17~-------15~----------13~----15~--| g|---------------------------------------| d|---------------------------------------| a|---------------------------------------| e|---------------------------------------|
tablatura
G Eu não queria vir Em eu não queria servir C D eu não queria falar G eu não queria ouvir Em que o senhor veio C D veio me salvar G Em C busco teu chamado e com coração aberto D Quero ser libertada G Em C quero sentir o teu fluir D pois o meu coração precisa de amor e salvação G Eu não queria vir Em eu não queria servir C D eu não queria falar G eu não queria ouvir Em que o senhor veio C D veio me salvar G Em C eu tentei fugir do teu amor D mas precisava ver G Em C para enxergar que sem o Salvador D a minha vida não tem sabor solo:(C G/B Am D Em C G D Bm D E ) A Eu não queria vir F#m eu não queria servir D E eu não queria falar A eu não queria ouvir F#m que o senhor veio D E veio me salvar SOLO FINAL: D C#m Bm E (2x) D E A

Subir 1 tomSubir 1/2Descer 1 tomDescer 1/2

Você agora pode tocar com outra afinação
Modifique a corda abaixo ou utilize um dos presets.

D
A
E
G
B
E
Violão Teclado Cavaquinho Viola Ukulele
top cifras adrielle
top cifras católicas
ver mais cifras desse artista var letras desse artista
Top cifras » Top artistas »
Anuncie no Cifras Termos de Uso Política de Privacidade Material de DivulgaçãoFale Conosco
Petaxxon Comunicação Online
Cifras.com.br - Melhor e mais completo site de cifras e tablaturas do Brasil
Mais de 1 milhão de cifras cadastradas desde 2003
As informações contidas no Cifras.com.br são colaborações de seus usuários e podem conter erros, sendo assim, não se responsabiliza sobre nenhuma destas.
R7 Música
close
 
redimensionar