» Cifras.com.br » Letras de músicas » Notícias » TV Cifras » Guitar Pro » Gospel
Logo Cifras.com.br

Início » Sertanejo » Almir Sater » Um Violeiro Toca »

Um Violeiro Toca

Almir Sater

Um Violeiro Toca

Almir Sater Escute esta e outras músicas enquanto navega no Cifras

Ano: 2005 - Album: Um Violeiro Toca

Autor:

Formatação

colunas A+ A- cores

Nível

Iniciante

Nível: Iniciante

Transcrição

enviada por claudoferreira


  		 

Intro: G  D  C  D9(11) 

E|-7-7---7---7-7/10-10-10----------------------------| 
B|-8-8---8---8-8/12-12-12----------------------------| 
G|---0-0---0---0-------------------------------------| 
D|---------------------------------------------------| 
A|---------------------------------------------------| 
E|---------------------------------------------------| 

E|-5-5---5---5-5/8---8--8----------------------------| 
B|-7-7---7---7-7/10--10-10---------------------------| 
G|---7-7---7---7-------------------------------------| 
D|---------------------------------------------------| 
A|---------------------------------------------------| 
E|---------------------------------------------------| 

E|-3-3---3---3-3/5---5---5--7------------------------| 
B|-5-5---5---5-5/7---7---7--8------------------------| 
G|---5-5---5---5/7-7---7-0--0------------------------| 
D|---------------------------------------------------| 
A|---------------------------------------------------| 
E|---------------------------------------------------| 


G                      G5(7M)    G5(6) 
 Quando uma estrela cai, no escurão da noite, 
C 
 e um violeiro toca suas mágoas. 
D9(11) 
 Então os olhos dos bichos, vão ficando iluminados 
C                                          D9(11)  C C5(9) 
Rebrilham neles estrelas de um sertão enluarado 
G            G5(7M)            G5(6) 
Quando o amor termina, perdido numa esquina, 
C 
e um violeiro toca sua sina. 
D9(11) 
Então os olhos dos bichos, vão ficando entristecidos 
C                                            D9(11)  C  C5(9) 
Rebrilham neles lembranças dos amores esquecidos. 
G                   G5(7M)      G5(6) 
Quando um amor começa, nossa alegria chama, 
C 
e um violeiro toca em nossa cama. 
D9(11) 
Então os olhos dos bichos, são os olhos de quem ama 
C                                             D9(11) C  C5(9) 
Pois a natureza é isso, sem medo nem dó sem drama 

Violão 1: 
    G           G5(7M) 
E|--3-----3-----2-------2-------------------| 
B|--3-----3-----3-------3-------------------| 
G|----0------0-----0-------0----------------| 
D|------------------------------------------| 
A|------------------------------------------| 
E|--3---3-------3-----3---------------------| 

    G5(7M)     G6 
E|--2-----2----0------0---------------------| 
B|--3-----3----3------3---------------------| 
G|----0-----0-----0------0------------------| 
D|------------------------------------------| 
A|------------------------------------------| 
E|--3---3------3----3-----------------------| 

   C 
E|------------------------------------------| 
B|--------1--1--1--1--1--1--1---------------| 
G|------0-0--0--0--0--0--0--0---------------| 
D|----2---2--2--2--2--2--2--2---------------| 
A|--3-----3--3--3--3--3--3--3---------------| 
E|------------------------------------------| 
          ↑ ↓  ↑  ↓  ↓  ↑  ↑ 
    C 
E|------------------------------------------| 
B|------1---------1-------------------------| 
G|--0---0-0---0---0-0-----------------------| 
D|--2-----2---2-----------------------------| 
A|--3-3-----3---3---------------------------| 
E|------------------------------------------| 

    D9(11) 
E|--------0--0--0--0--0--0--0---------------| 
B|--------3--3--3--3--3--3--3---------------| 
G|------0-0--0--0--0--0--0--0---------------| 
D|----4---4--4--4--4--4--4--4---------------| 
A|--5-----5--5--5--5--5--5--5---------------| 
E|------------------------------------------| 
          ↑ ↓  ↑  ↓  ↓  ↑  ↑ 

    D9(11) 
E|------------------------------------------| 
B|------3---------3-------------------------| 
G|--0---0-0---0---0-0-----------------------| 
D|--4-----4---4-----------------------------| 
A|--5-5-----5---5---------------------------| 
E|------------------------------------------| 

   C  D9(11)  C 
E|-0--0-------0--------------| 
B|-1--3-------1--------------| 
G|-0--0-------0--------------| 
D|-2--4-------2--------------| 
A|-3--5-------3--------------| 
E|---------------------------| 

Variação: 
    C5(9) 
E|--0--2--3--2--3---------------------------| 
B|--3--3--3--3--3---------------------------| 
G|------------------------------------------| 
D|------------------------------------------| 
A|--3--3--3-----3---------------------------| 
E|------------------------------------------| 

Violão 2: 
   G          G5(7M)   G          G6 
E|----------------2-------------------0-----| 
B|-------3----------3--------3----------3---| 
G|-----0---0---------------0---0------------| 
D|---0-------------------0------------------| 
A|------------------------------------------| 
E|-3----------3-3------3----------3-3-------| 

   C9 
E|-------3-----------3-3-3-3--3--3-3-3--3-3-| 
B|---------3-----3---3-3-3-3--3--3-3-3--3-3-| 
G|-----0-----------0-0-0-0-0--0--0-0-0--0-0-| 
D|---2---------------2-2-2-2--2--2-2-2--2-2-| 
A|-3---------3-3-----3-3-3-3--3--3-3-3--3-3-| 
E|------------------------------------------| 
                     ↓ ↓ ↑ ↑  ↓  ↓ ↑ ↓  ↑ ↑ 
   D9(11) 
E|---------------0---0-0-0-0--0--0-0-0--0-0-| 
B|-------3---------3-3-3-3-3--3--3-3-3--3-3-| 
G|-----0---0---------0-0-0-0--0--0-0-0--0-0-| 
D|---4---------------4-4-4-4--4--4-4-4--4-4-| 
A|-5---------5-5-----5-5-5-5--5--5-5-5--5-5-| 
E|------------------------------------------| 
                     ↓ ↓ ↑ ↑  ↓  ↓ ↑ ↓  ↑ ↑ 

    C9  D9(11) C9 
E|--3---0------3----------------------------| 
B|--3---3------3----------------------------| 
G|--0---0------0----------------------------| 
D|--2---4------2----------------------------| 
A|--3---5------3----------------------------| 
E|------------------------------------------| 

Variação: 
    C9 
E|--0--2--3--2--0---------------------------| 
B|--3--3--3--3--3---------------------------| 
G|--0--0--0--0--0---------------------------| 
D|--0-----------0---------------------------| 
A|--3--3--3--3--3---------------------------| 
E|------------------------------------------| 


Refrão: 
G                         G5(7M)                D 
Tudo é sertão, tudo é paixão, se o violeiro toca 
Am7                       C          G 
A viola, o violeiro e o amor se tocam 

Variação: 
E|--------------------2--x--2--x--2---------| 
B|--------------------3--x--3--x--3---------| 
G|--0--0--------------2--x--2--x--2---------| 
D|-----------------0--0--x--0--x--0---------| 
A|-/3--2--0---------------------------------| 
E|-----------3--2---------------------------| 

Violão 2: 
E|------------------------------------------| 
B|-4/5-3------------------------------------| 
G|-------5-4----7~--------------------------| 
D|------------7-----------------------------| 
A|------------------------------------------| 
E|------------------------------------------| 

E|-7/8--7-5-3-2-3/5-------------------------| 
B|-8/10-8-7-5-3-5/7-------------------------| 
G|------------------------------------------| 
D|------------------------------------------| 
A|------------------------------------------| 
E|------------------------------------------| 


(Intro) 

G                   G5(7M)      G5(6) 
Quando um amor começa, nossa alegria chama, 
C 
e um violeiro toca em nossa cama. 
D9(11) 
Então os olhos dos bichos, são os olhos de quem ama 
C                                             D9(11) C  C5(9) 
Pois a natureza é isso, sem medo nem dó sem drama 

(Refrão) 

  

top cifras almir sater
top cifras sertanejo
ver mais cifras desse artista var letras desse artista
Top cifras » Top artistas »
Anuncie no Cifras Termos de Uso Política de Privacidade Material de DivulgaçãoFale Conosco
Petaxxon Comunicação Online
Cifras.com.br - Melhor e mais completo site de cifras e tablaturas do Brasil
Mais de 1 milhão de cifras cadastradas desde 2003
As informações contidas no Cifras.com.br são colaborações de seus usuários e podem conter erros, sendo assim, não se responsabiliza sobre nenhuma destas.
R7 Música
close
 
redimensionar