» Cifras.com.br » Letras de músicas » Notícias » TV Cifras » Guitar Pro » Gospel
Logo Cifras.com.br
André Valadão

Milagre

André Valadão Escute esta e outras músicas enquanto navega no Cifras

Ano: 2005 - Album: Milagres: ao Vivo

Autor:

Tom

Formatação

colunas A+ A- cores

Nível

Iniciante

Nível: Iniciante

Transcrição

enviada por aleffederico


  (intro) Am7 G/B C9 ( C/E F ) Am7 G/B F Dm7  

 
E|--------------------------------------------------| 
B|--------------------------------------------------| 
G|-2/5-4-5---2/5-4-5-5/7--5-4-5-4-5-----------------| 
D|----------------------------------5--5/7----------| 
A|--------------------------------------------------| 
E|--------------------------------------------------| 
 

 
E|--------------------------------------------------| 
B|--------------8-6-5-------------------------------| 
G|-2/5-4-5------------7-5-7b-5--------7-------------| 
D|---------5-7------------------7-5-7---------------| 
A|--------------------------------------------------| 
E|--------------------------------------------------| 
 

 
E|-------------------------7-8--10-8-7---------------5/8-5-----| 
B|----------------------8---------------------8-6-5^-----------| 
G|-------------4/5-7/9-----------------------------------------| 
D|----------5--------------------------------------------------| 
A|--2/3--7-----------------------------------------------------| 
E|-------------------------------------------------------------| 
 

      Am9              Am9/G 
Posso crer que em minha vida 
	  F/C         C9 
O milagre vai acontecer 
      Am9      Am9/G 
Posso ver as promessas             (2x) 
	 F/C           C9/E 
Sendo liberadas sobre mim 
	Dm7   	    G4 G 
Sendo liberadas sobre mim 

              F	  G     Am7  (na 2ª vez: Am7 G/B C9) 
Hoje o meu milagre vai chegar 
C9/E	        F   G   Am7 
Eu vou crer, não vou duvidar 
    C/E         F    G       Am7 
O preço que foi pago ali na cruz 
   G/B F/A          G4 G 
Me dá vitória nesta hora 

(solo 1) F G4 F/A G/B  Dm7 (C/E F) (G Am7) G/B 

    Am7        Am7/G 
Tua morte, tua cruz, teu sangue 
     F	       C9 
Derramado no calvário 
       Am7           Am7/G 
Está selado, foi consumado 
	  F          C9/E 
Vivo, hoje livre do pecado 
           Dm7          G4  G 
Vivo as promessas dos milagres 

	     F	 G     Am7 
Hoje o meu milagre vai chegar 
C9/E	        F   G    Am7 
Eu vou crer, não vou duvidar 
        C/E     F     G       Am7 
O preço que foi pago ali na cruz 
   G/B   F/A        G/B 
Me dá vitória nesta hora 
       F/C          Gsus (Bb9  Gsus Bb9 Gsus) 
Me dá vitória nesta hora 

(2º solo) (2:34) 
 
E|----------------------------------------------------------------------| 
B|-8/10-10-10-12-12--10-10-12-12--13--12--13--12--12--13--13-13---------| 
G|----------------------------------------------------------------------| 
D|-5/7--7---7--9---9---7---7--9--9---10---9---10---9---9---10--10--10---| 
A|----------------------------------------------------------------------| 
E|----------------------------------------------------------------------| 
 

 
E|--------------------------------------------------------------------------------| 
B|-15--15--13--13--15--15---15-----8/10---10--10---------10----8------------------| 
G|----------------------------------------------------------7^^-------9------7^-5-| 
D|-12--12--10--10--12--12---12-----5/7----7---7-----------------------------------| 
A|--------------------------------------------------------------------------------| 
E|--------------------------------------------------------------------------------| 
 

 
E|------------------------------------------------------| 
B|------------------------------------------------------| 
G|-----5/7-5--------------------------------------------| 
D|--7---------7--5-5/7-5----5/7-5-----------------------| 
A|--------------------------7--------7--5--3----3/5-----| 
E|----------------------------------------------5-------| 
 

Am7  G/B   C9 Dm7 C/E  F     G      Am7 
Hoje  o    me______u milagre vai chegar 
                  F   G    Am7 
Eu vou crer, não vou duvidar 
  C/E           F    G       Am7 
O preço que foi pago ali na cruz 
   G/B  F/A         G 
Me dá vitória nesta hora 

C/E          Am7   G/B    C9 
Hoje o meu milagre vai chegar 
C9/E              F   G    Am7 
Eu vou crer, não vou duvidar 
        C/E      F    G       Am7 
O preço que foi pago ali na cruz 
   G/B  F/A        G/B 
Me dá vitória nesta hora 
       F/C          Gsus 
Me dá vitória nesta hora 
        Am7        G/B 
Me dá vitória nesta hora 
        F/C        Gsus 
Me dá vitória nesta hora 
      F/A          G/B 
Me dá vitória nesta hora 
        F/C        Gsus 
Me dá vitória nesta hora 
        Am7         G/B 
Me dá vitória nesta hora 
        Bb9    Eb9    C9 
Me dá vitória 

(riff guitarra) 
E|----------------------| 
B|-6-5-6--6-8-----------| 
G|-5-5-5--5-7-----------| (2x) 
D|-3-2-3--3/5-----------| 
A|----------------------| 
E|----------------------| 
  

Você agora pode tocar com outra afinação
Modifique a corda abaixo ou utilize um dos presets.

D
A
E
G
B
E
top cifras andré valadão
top cifras gospel
ver mais cifras desse artista var letras desse artista
Top cifras » Top artistas »
Anuncie no Cifras Termos de Uso Política de Privacidade Material de DivulgaçãoFale Conosco
Petaxxon Comunicação Online
Cifras.com.br - Melhor e mais completo site de cifras e tablaturas do Brasil
Mais de 1 milhão de cifras cadastradas desde 2003
As informações contidas no Cifras.com.br são colaborações de seus usuários e podem conter erros, sendo assim, não se responsabiliza sobre nenhuma destas.
R7 Música
close
 
redimensionar