» Cifras.com.br » Letras de músicas » Notícias » TV Cifras » Guitar Pro » Gospel

Início » Gospel » Fernandinho » Uma Nova História: ao Vivo »

Pai De Multidões

Fernandinho

Pai De Multidões

Fernandinho Escute esta e outras músicas enquanto navega no Cifras

Ano: 2009 - Album: Uma Nova História: ao Vivo

Autor:

Formatação

colunas A+ A- cores

Nível

Iniciante

Nível: Iniciante

Transcrição

enviada por Rodrigodes


  Tom: E 

      E               B 
Eu serei pai de multidões 
     F#m               A 
Tocarei em muitas gerações... (2x) 

Solo: E  B  F#m  A 

            E           B 
Eu vejo um povo tão distante 
       C#m                  A 
Tão sozinho, buscando salvação 
         E         B 
Eu vejo órfãos e viúvas 
          F#m                 A 
Filhos pródigos tão longe do Pai 

      B            A 
Consolar os que choram 
     E          B 
Libertar os cativos 
     C#m        A 
Preparar o caminho 
      E            B 
Anunciar tua salvação 

      E                B 
Eu serei pai de multidões 
     F#m               A 
Tocarei em muitas gerações... (4x) 

Solo: 
E|---------------------------------------------------------| 
B|---------------------------------------------------------| 
G|-----4-6/8-8------8-8-6-6-4-4----4-6/8-8----8-8-6-6-4-4--| 
D|-4h6-----------------------------------------------------| 
A|---------------------------------------------------------| 
E|---------------------------------------------------------| 

E|---------------------------------------------------------| 
B|-------------7-------------------------------------------| 
G|-----4-6/8-8------8-8-6-6-4-4----4-6/8-8----8-8-6-6-4-4--| 
D|-4h6-----------------------------------------------------| 
A|---------------------------------------------------------| 
E|---------------------------------------------------------| 

correçoes .. Del joe --I.E.Q. V.J. 



  

Top cifras » Top artistas »
Anuncie no Cifras Termos de Uso Política de Privacidade Material de DivulgaçãoFale Conosco
Petaxxon Comunicação Online
Cifras.com.br - Melhor e mais completo site de cifras e tablaturas do Brasil
Mais de 1 milhão de cifras cadastradas desde 2003
As informações contidas no Cifras.com.br são colaborações de seus usuários e podem conter erros, sendo assim, não se responsabiliza sobre nenhuma destas.
R7 Música
close
 
redimensionar