» Cifras.com.br » Letras de músicas » Notícias » TV Cifras » Guitar Pro » Gospel

Início » Besteirol » Mamonas Assassinas » »

Débil Mental (ver. 2)

Mamonas Assassinas

Débil Mental (ver. 2)

Mamonas Assassinas Escute esta e outras músicas enquanto navega no Cifras

Autor: (Versão Para Guitarra)

Formatação

colunas A+ A- cores

Nível

Iniciante

Nível: Iniciante

Transcrição

enviada por VELHO


   harmonic 
~ vibrato 
x palm mute 
/ slide 


Intro: (4 vezes) 
e|----------------------------------------------------------------------------- 
b|------------------------------------------------------------------------------ 
G|-------------------4-3------------------------------------4-3----------------- 
D|-------------5-4----------5-4------------------------5-4---------5-4---------- 
A|---------------------------------5-4*----------------------------------------- 
E|-(0x0x0x)--2-----2------2-----2----------0x-0x-0x--2-----2-----2-------2---5~4* 


2x : E F#/E  F#/D  Db : 
   : E F#/E  F#/A  Ab : 


Walking in the dark now there's just some cookies. 

it's not for you I know it's not yet. 
   
I just can't explain it melts in my mouth. 
     
Dying to me now is popcorn.  
  
B           A 
Can't you understand? 
		      E 
Can't you understand, boy?  

	         D    A 
So, shake your head 

So, shake your head, sucker! 


Repete a intro 2 vezes. E depois entra o solo da música. 

VELHO (BANDA VM's) 


e|----------------------|-----------------------|------------------------|------| 
b|-------2*-3*-5*-3*-5^-|--5^-5-3-2-3-5-2-------|------2-3---2-----------|------| 
G|-3*-4*----------------|-----------------4-3---|--3-4-----4---4-3-------|------| 
D|----------------------|-----------------------|-------------------5-4--|--2---| 
A|----------------------|-----------------------|------------------------|------| 
E|----------------------|-----------------------|------------------------|------| 

e|-----6---------------------------------------------------------------| 
b|-7-8---8-7-8-7---7---------------------------------------------------| 
G|---------------9---9--7-9-7-6-7-6----6-------------------------------| 
D|---------------------------------9----9-8-9-8------8-----------------| 
A|-----------------------------------------------10-----10-9-7-9-10----| 
E|---------------------------------------------------------------------| 

e|-------------------9--14--9----------9-|-14--9-------------------|-----------------| 
b|---------------11-----------11----11---|---------12--------------|------12-11-12^--| 
G|------------11-----------------11------|------------12-----------|---11------------| 
D|---------11----------------------------|---------------12--------|-x---------------| 
A|--9-H-13-------------------------------|------------------14--10-|-----------------| 
E|---------------------------------------|-------------------------|-----------------| 

e|-------------------------|-----------------------|--------------------| 
b|--5-4--0--5-4--0--5^-4h5-|-7^-7^-7^-7-5--7-HA|----|--5-4-0--5--4-0-----| 
G|-------------------------|-----------------7-HA|--|-----------------2--| 
D|-------------------------|-------------------7-HA|--------------------| 
A|-------------------------|-----------------------|--------------------| 
E|-------------------------|-----------------------|--------------------| 

e|---------------------------------3-5--7----5-| 
b|--------------------------3-5-7------------5-| 
G|-------2-4-6-------2-4-6---------------------| 
D|-2-4-6-------2-4-6---------------------------| 
A|---------------------------------------------| 
E|---------------------------------------------| 

e|--10-9-7-9-7-6-7-6---6-----------------------------------------------------------| 
b|-------------------8---8-7-8-7---7-----------------------------------------------| 
G|-------------------------------9---9-7-9-7-6-7-6---6-----------------------------| 
D|-------------------------------------------------9---9-8-9-8----8----------------| 
A|-------------------------------------------------------------10---10-9-10-9-7-9--| 
E|---------------------------------------------------------------------------------| 


e|--------------------------------------- 
b|--------------------------------------- 
G|------------------4-3---------4-3------ 
D|------------5-4---------5-4--------2--- 
A|--------------------------------------- 
E|-0x0x0x---2-----2-----2-----2---------- 


Repete intro 2 vezes 


Repete Refrão 

Nessa parte você vai deve tocar os power chords varias repetidamente em palm mute. 
  
B            A 
Can't you understand? 
		      E 
Can't you understand, boy?  

D	         A 
So, shake your head 
So, shake your head, sucker! 


B  A  D  E  F#  G 

E|------------------------|-------------------------| 

  

Conseguiu tocar essa música? Ficou legal? Então, mostre para todo mundo no Você Canta, receba notas e comentários. Cante agora

Top cifras » Top artistas »
Anuncie no Cifras Termos de Uso Política de Privacidade Material de DivulgaçãoFale Conosco
Petaxxon
Cifras.com.br - Melhor e mais completo site de cifras e tablaturas do Brasil
Mais de 1 milhão de cifras cadastradas desde 2003
As informações contidas no Cifras.com.br são colaborações de seus usuários e podem conter erros, sendo assim, não se responsabiliza sobre nenhuma destas.
R7 Música
close
 
redimensionar