» Cifras.com.br » Letras de músicas » Notícias » TV Cifras » Guitar Pro » Gospel

Início » Música Clássica » Mozart » »

Green sleeves

Mozart

Green sleeves

Mozart Escute esta e outras músicas enquanto navega no Cifras

Autor:

Formatação

colunas A+ A- cores

Nível

Expert

Nível: Expert

Transcrição

enviada por tequilla2006


  Am G - C  G F E  
Am G - C  G F E Am  

2a parte  

C G F E  
C G F E Am  


    Am     G  C          G                  F                  E  
E|------------0----1--0-------------------------------------------------------  
B|----1----3-------------3------------------1------------------0--------------  
G|-2---------------------4----4-------2--4--2----2--2----1--2--1----1---------  
D|-----------------------5-------5----------3------------------2-------2------  
A|----0----2--3---------------------------------------------------------------  
E|-----------------------3------------------1------------------0--------------  



    Am     G  C          G                  F          E          Am  
E|------------0----1--0-------------------------------------------------------  
B|----1----3-------------3------------------1----0-----0----------------------  
G|-2---------------------4----4-------2--4--2-------2--1-------1--2-----------  
D|-----------------------5-------5----------3----------2----4-----------------  
A|----0----2--3---------------------------------------------------0-----------  
E|-----------------------3------------------1----------0----------------------  


2a Parte  


   C              G                  F                  E  
E|-3----3----1--0-------------------------------------------------------------  
B|----------------3------------------1------------------0---------------------  
G|----------------4----4-------2--4--2----2--2----1--2--1----1----------------  
D|----------------5-------5----------3------------------2-------2-------------  
A|-2--------------------------------------------------------------------------  
E|----------------3------------------1------------------0---------------------  



   C              G                  F           E          Am  
E|-3----3----1--0-------------------------------------------------------------  
B|----------------3------------------1----0------0----------------------------  
G|----------------4----4-------2--4--2------1----1-------1--2-----------------  
D|----------------5-------5----------3-----------2----4-----------------------  
A|-2--------------------------------------------------------0-----------------  
E|----------------3------------------1-----------0----------------------------  



  

top cifras mozart
top cifras música clássica
ver mais cifras desse artista var letras desse artista
Top cifras » Top artistas »
Anuncie no Cifras Termos de Uso Política de Privacidade Material de DivulgaçãoFale Conosco
Petaxxon Comunicação Online
Cifras.com.br - Melhor e mais completo site de cifras e tablaturas do Brasil
Mais de 1 milhão de cifras cadastradas desde 2003
As informações contidas no Cifras.com.br são colaborações de seus usuários e podem conter erros, sendo assim, não se responsabiliza sobre nenhuma destas.
R7 Música
close
 
redimensionar