» Cifras.com.br » Letras de músicas » Notícias » TV Cifras » Guitar Pro » Gospel
Logo Cifras.com.br
Temas Variados

Temas Variados
Peixe vivo

Escute esta músicas

Tom

Formatação

colunas A+ A- cores

Nível

Iniciante

Nível: Iniciante

Transcrição

enviada por antello


corrigida por Acelot

  
Intro: 


D |--------------------------------------------------------------------| 
A |--------------------------------------------------------------------| 
F#|---/8--8--7---------5--3-------------/5--5--3--------1--0-----------| 
A |---/9--9-----0------5--4-----0-------/5--5--4--4-----2--0------0----| 
E |----------0-----0---------0-----0-----------------0---------0-----0-| 

D |--------------------------------------------------------------------| 
A |--------------------------------------------------------------------| 
F#|---/8--8--7---------5--3-------------/5--5--3--------1--0-----------| 
A |---/9--9-----0------5--4-----0-------/5--5--4--4--0--2--------------| 
E |----------0-----0---------0-----0-----------------0-----0-----------| 

Tema: 

D |--------1--1---------------9--9---7-------1--1----------------------| 
A |---/9-----------10---10----------------/9--------10---7--10--10---9-| 
F#|--------------------------------------------------------------------| 
D |--------------------------------------------------------------------| 
A |-----------0-------0----------0-----0--------0------0---------0-----| 

D |------------------------------------------------------------| 
A |------------------------------------------------------------| 
F#|---0---/3--3--1--1---/5--5--3--0---/3--3--1-------1---1---0-| 
D |---0---/4--4--2--2---/5--5--4--0---/4--4--2---2-----------0-| 
A |------------------------------------------------------0-----| 

D |------1--1------------9--9---7--------1--1------------------------| 
A |--9---------10---10----------------9--------10----7---10---10---9-| 
F#|------------------------------------------------------------------| 
D |------------------------------------------------------------------| 
A |---------0-----0---------0------0--------0------0-----------0-----| 

D |------1--1------------9--9---7--------1--1------------------------| 
A |--9---------10---10----------------9--------10----7---10----0-----| 
F#|------------------------------------------------------------------| 
D |------------------------------------------------------------------| 
A |--0------0-----0---------0------0--------0------0-----------0-----| 

Refrão 

D |----------------0----------------| 
A |---0---2-----4-----4---2--0------| 
F#|-------1--1----------------------| 
D |---------------------------------| 
A |-------2---------------0-------0-| 

D |----------------0----------------| 
A |---0---2-----4-----4---2--0------| 
F#|-------1--1----------------------| 
D |---------------------------------| 
A |-------2---------------0---------| 

  

top cifras temas variados
top cifras especial de natal
ver mais cifras desse artista var letras desse artista
Top cifras » Top artistas »
Anuncie no Cifras Termos de Uso Política de Privacidade Material de DivulgaçãoFale Conosco
Petaxxon Comunicação Online
Cifras.com.br - Melhor e mais completo site de cifras e tablaturas do Brasil
Mais de 1 milhão de cifras cadastradas desde 2003
As informações contidas no Cifras.com.br são colaborações de seus usuários e podem conter erros, sendo assim, não se responsabiliza sobre nenhuma destas.
R7 Música
close
 
redimensionar