» Cifras.com.br » Letras de músicas » Notícias » TV Cifras » Guitar Pro » Gospel

Início » MPB » Tom Jobim » »

Garota De Ipanema (solo)

Tom Jobim

Garota De Ipanema (solo)

Tom Jobim Escute esta e outras músicas enquanto navega no Cifras

Autor: (Tom Jobim / Vinícius de Moraes)

Tom

Formatação

colunas A+ A- cores

Nível

Sem Nível

Nível: Sem Nível

Transcrição

enviada por Acelot


  
Parte A: 

d|-5-5-2-2-2-0-5-5--2-2-2-0-5-5--2-2-2-0-5-5--2-2-2-0-3-3--0-0-0-----| 
B|-------------------------------------------------------------------| 
G|-------------------------------------------------------------------| 
D|-------------------------------------------------------------------| 
                                                                        (2x) 
d|---2-2-------------------------------------------------------------| 
B|-1------1-1-1---1--------------------------------------------------| 
G|--------------3----------------------------------------------------| 
D|-------------------------------------------------------------------|  




Parte B: 

d|--3----4-3-1-3-1-----1---6----7-6-4-6-4-----4---7---8-7-5-7-5----5-| 
B|-----------------2----------------------5---------------------6----| 
G|-------------------------------------------------------------------| 
D|-------------------------------------------------------------------| 

d|--7-8-10-----------------------------------------------------------| 
B|-------------------8-9-10--11-------5-6-7-8------------------------| 
G|------------7-9-10--------------5-7--------------------------------| 
D|---------10-------------------8------------------------------------| 


Parte a .2: 


d|-5-5-2-2-2-0-5-5--2-2-2-0-5-5--2-2-2-0-5-5--2-2-0-----------------| 
B|-------------------------------------------------------6-6-6------| 
G|------------------------------------------------------------------| 
D|------------------------------------------------------------------| 

d|---10---2-2-2-0-2---2-2-2-0-2---2-2-2-0-2--------------------------| 
B|-------------------------------------------------------------------| 
G|-7-----------------------------------------------------------------| 
D|-------------------------------------------------------------------| 




Parte Final: 

d|-3tr--4tr-3tr-1tr-3tr-1tr-----------6tr--7tr-6tr-4tr-6tr-4tr-------| 
B|--------------------------2tr--4tr---------------------------5tr---| 
G|-------------------------------------------------------------------| 
D|-------------------------------------------------------------------| 

d|------7tr---8tr-7tr-5tr-7tr-5tr------------------------------------| 
B|-7tr----------------------------6tr-8tr----------------------------| 
G|-------------------------------------------------------------------| 
D|-------------------------------------------------------------------| 


Parte C: 

d|-5-5-2-2-2-0-5-5--2-2-2-0-5-5--2-2-2-0-5-5--2-2-2-0-7-7--3-3-3-0---| 
B|-------------------------------------------------------------------| 
G|-------------------------------------------------------------------| 
D|-------------------------------------------------------------------| 

d|-10---2-2-2-0-2---2-2-2-0-2---2-2-2-0-2----------------------------| 
B|-------------------------------------------------------------------| 
G|-------------------------------------------------------------------| 
D|-------------------------------------------------------------------| 
  

Top cifras » Top artistas »
Anuncie no Cifras Termos de Uso Política de Privacidade Material de DivulgaçãoFale Conosco
Petaxxon Comunicação Online
Cifras.com.br - Melhor e mais completo site de cifras e tablaturas do Brasil
Mais de 1 milhão de cifras cadastradas desde 2003
As informações contidas no Cifras.com.br são colaborações de seus usuários e podem conter erros, sendo assim, não se responsabiliza sobre nenhuma destas.
R7 Música
close
 
redimensionar