» Cifras.com.br » Letras de músicas » Notícias » TV Cifras » Guitar Pro » Gospel
Aline Barros

Apaixonado

Aline Barros Escute esta e outras músicas enquanto navega no Cifras

Ano: 2004 - Album: Som de Adoradores - Ao Vivo

Autor:

Tom

E

Formatação

colunas A+ A- cores

Nível

Expert

Nível: Expert

Transcrição

enviada por Bandhana


   
part1: 
G||------------------------|-----------------|--------------------|------------------|| 
D||------------------------|-----------------|--------------------|------------------|| 
A||--3--3--1--1------------|-----------------|--3--3--3--4--3---1-|--1--1--1---3--1--|| 
E||---------------4--4---3-|--3--4--4--------|--------------------|------------------|| 
     você  mudou meu jeito   de viver          me deu sentido   vo - cê está comigo 
                                agir 
 
pre-Refrão: 
G||--------------|--------------------|-----------------| 
D||--------------|--------------------|-----------------| 
A||--------------|--------------------|----1-3---1------| 
E||---4--4---3---|--4--4--4--6--6--6--|-4-----------4---| 
     vinte quadro  horas  e ainda asim  é muito pouco 
                                                                                                                                 
---------------------|--------------------------|----------------|| 
---------------------|--------------------------|----------------|| 
-----------1---3-----|-3--1--1----------1-3-1---|----------------|| 
-4--4--4----------4--|-----------4--4-4-------4-|---3---3--4--4--|| 
 você plantou em mim   a semente da   eternidade   pra te adorar 
 
 
Refrão:                                             
G||------------------|------------------|-----------------|-----------------------|| 
D||------------------|------------------|-----------------|-----------------------|| 
A||--3--3--4--3--1---|--1--1--1--3--1---|--1--------1-----|--4--3--1--------1-----|| 
E||------------------|------------------|-----4--4-----4--|------------3-------4--|| 
     a-pai-xo-na-do     a-pai-xo-na-do     a-pai-xo-na-do   por você Senhor estou 
 
 
part 2: 
G||---------------|---------------------|-----------------------|-----------| 
D||---------------|---------------------|-----------------------|-----------| 
A||--3--3----1--1-|---------------------|-3--3---1--1-----------|-----------| 
E||---------------|--4---4---3-3--4--4--|--------------4--4---3-|--2--4--1--| 
     você   morreu  por mim naquela cruz  sua   vergonha foi em   meu favor 
 
---------------------------|-------------------|| 
---------------------------|-------------------|| 
-3--3--3--4--3----1--1---1-|-3---1--1----------|| 
---------------------------|------------4--4---|| 
 e  hoje  vivo   pro meu senhor  e Cristo 
 
part 3: 
G||------------------------------------|-------------------------------------------|| 
D||------------------------------------|-------------------------------------------|| 
A||-0--0-------------------------------|-------------0--0--------------------------|| 
E||-------4--4--2--2---0-4-2-0--4--4-4-|-4----5---0--------4--4--2--2---0--4--2--0-|| 
    você  mudou o meu  caminho  e hoje  te encontrei e eu não vivo mais sozinho  
 
 
* rpt pre-Refrão e Refrão dpois d kda part * 
 

  

Top cifras » Top artistas »
Anuncie no Cifras Termos de Uso Política de Privacidade Material de DivulgaçãoFale Conosco
Petaxxon Comunicação Online
Cifras.com.br - Melhor e mais completo site de cifras e tablaturas do Brasil
Mais de 1 milhão de cifras cadastradas desde 2003
As informações contidas no Cifras.com.br são colaborações de seus usuários e podem conter erros, sendo assim, não se responsabiliza sobre nenhuma destas.
R7 Música
close
 
redimensionar