» Cifras.com.br » Letras de músicas » Notícias » TV Cifras » Guitar Pro » Gospel

Início » Gospel » Aline Barros » »

Te Adorar Senhor

Aline Barros

Te Adorar Senhor

Aline Barros Escute esta e outras músicas enquanto navega no Cifras

Autor:

Tom

Formatação

colunas A+ A- cores

Nível

Avançado

Nível: Avançado

Transcrição

enviada por Guttenbergg


  Te Adorar Senhor 

Riffs: 
Introdução  
G |-------------------------------------------------------------| 
D | ------------------------------------------------------------| 
A |---------2---------4--------------------------2-------0---| 
E |----0--------------------5-----------0---------------------| 

Estrofe  

G |--------------------------------------------------------------| 
D |--------------------------------------------------------------| 
A |------------2--------------------------------------------2---| 
E |----0---------------5-------5---------2-----0-------------| 

Refrão 


G |-----------------------------------------|-------------------| 
D |-----------------------------------------|-------------------| 
A |--------2------4--------------0----2--|---0----2---0---| 
E |----5------4-------2-----0----------- |-------------------| 


Solo 

G |--------------------------------------------------------------| 
D |--------------------------------------------------------------| 
A |------------------4--------2------------------0------2-----| 
E |----2-------0-------------------2------0-------------------| 
  

top cifras aline barros
top cifras gospel
ver mais cifras desse artista var letras desse artista
Top cifras » Top artistas »
Anuncie no Cifras Termos de Uso Política de Privacidade Material de DivulgaçãoFale Conosco
Petaxxon Comunicação Online
Cifras.com.br - Melhor e mais completo site de cifras e tablaturas do Brasil
Mais de 1 milhão de cifras cadastradas desde 2003
As informações contidas no Cifras.com.br são colaborações de seus usuários e podem conter erros, sendo assim, não se responsabiliza sobre nenhuma destas.
R7 Música
close
 
redimensionar