» Cifras.com.br » Letras de músicas » Notícias » TV Cifras » Guitar Pro » Gospel

Início » Hinos » Brasil » »

Hino Nacional Brasileiro

Brasil

Hino Nacional Brasileiro

Brasil Escute esta e outras músicas enquanto navega no Cifras

Autor:

Tom

F

Formatação

colunas A+ A- cores

Nível

Iniciante

Nível: Iniciante

Transcrição

enviada por FlavioBS


  G|------------------------- 
D|--3-2-3-5-7-5-7-8-9--10-- 
A|-2----------------------8 
E|------------------------- 
 
OUVIRAM... 
  
G|---------------------- 
D|---3-2-5-3-7-5-8-7-4-5 
A|-2-------------------- 
E|---------------------- 
 
DE UM POVO... 
  
G|--------------------------- 
D|--5-4-7-5-8-7-9-7-/11-13--- 
A|-3-----------------------11 
E|--------------------------- 
 
E O SOL... 
  
G|--------------------- 
D|--5-4-7-5-8-7-9-8-6-7 
A|-3------------------- 
E|--------------------- 
 
BRILHOU... 
  
G|-------------------- 
D|-7-7-8-7--7-8-7-7/12 
A|-------------------- 
E|-------------------- 
 
SE O PENHOR... 
  
G|-------------------------- 
D|-8-10-8-7-5-7-5-3-2-3-2-/7 
A|-------------------------- 
E|-------------------------- 
 
CONSEGUIMOS... 
  
G|-------------------- 
D|-7-7-8-7--7-8-7-7/12 
A|-------------------- 
E|-------------------- 
 
EM TEU SEIO... 
  
G|------------------------ 
D|-9-7-5-7-5-3-2-3-2/12-10 
A|------------------------ 
E|------------------------ 
 
DESAFIA... 
  
G|-------3-------3-----3-------------- 
D|-----2-------2-----2---5-2--------2- 
A|-3-5-----3-5---3-5---------3-1--3--- 
E|-------------------------------3---- 
 
Ó PRATIA AMADA... 
  
G|------------------------- 
D|--3-2-3-5-7-5-7-8-9--10-- 
A|-2----------------------8 
E|------------------------- 
 
BRASIL... 
  
G|---------------------- 
D|---3-2-5-3-7-5-8-7-4-5 
A|-2-------------------- 
E|---------------------- 
 
DE AMOR... 
  
G|--------------------------- 
D|--5-4-7-5-8-7-9-7-/11-13--- 
A|-3-----------------------11 
E|--------------------------- 
 
SE EM TEU... 
  
G|--------------------- 
D|--5-4-7-5-8-7-9-8-6-7 
A|-3------------------- 
E|--------------------- 
 
A IMAGEM... 
  
G|-----------------------|------------------------|------------------------ 
D|-3-5-3-2-3-2-3-5-3-3/8-|-5-7-5-4-5-4-5-7-5-5/10-|-7-9-7-6-7-6-7-9-7-7/12- 
A|-----------------------|------------------------|-------------------------- 
E|-----------------------|------------------------|-------------------------- 
 
GIGANTE... É BELO... EO TEU... 
  
G|------------|-------------------------- 
D|-8-7-5-7--5-|-2-3-5/-7-6-3-2--------8-7 
A|------------|-----------------5--3----- 
E|------------|-------------------------- 
TERRA...   ENTRE OUTRAS... 
  
G----------------------------------- 
D-5-7-8-9-10-5-3----8-7--2------2-3- 
A----------------4----------5-3----- 
E----------------------------------- 
DOS FILHOS... 
 
PESSOAL SE FICAREM COM DUVIDAS MEU E-MAIL É : FRAVIOBS@HOTMAIL.COM   
  

Top cifras » Top artistas »
Anuncie no Cifras Termos de Uso Política de Privacidade Material de DivulgaçãoFale Conosco
Petaxxon Comunicação Online
Cifras.com.br - Melhor e mais completo site de cifras e tablaturas do Brasil
Mais de 1 milhão de cifras cadastradas desde 2003
As informações contidas no Cifras.com.br são colaborações de seus usuários e podem conter erros, sendo assim, não se responsabiliza sobre nenhuma destas.
R7 Música
close
 
redimensionar