» Cifras.com.br » Letras de músicas » Notícias » TV Cifras » Guitar Pro » Gospel

Tom

Eb

Formatação

colunas A+ A- cores

Nível

Iniciante

Nível: Iniciante

Transcrição

enviada por Maicon_Am_


  Charlie Brown Jr ? Proibida Pra Mim (Grazon) 
 
Intro: 
G|----------------------------------- 
D|----------------------------------- 
A|---------3-3-1-1-1-1-1-1----------- 
E|-1-1-1-1--------------------------- 
 
Riff 1 
G|----------------------------------- 
D|----------------------------------- 
A|-6-6-6-6-6-6-6-1-1-1-1-1-3--------- 
E|---------------------------4------- 
 
Riff 2 
G|----------------------------------- 
D|----------------------------------- 
A|-6-6-6-1-1-1-3-3-3----------------- 
E|-------------------4-4-4----------- 
 
Refrão: 
G|-------------------------------------------------- 
D|-------------------------------------------------- 
A|-6-6-6-6-6-6-1-1-1-1-1-1-3-3-3-3-3-3-------------- 
E|-------------------------------------4-4-4-4-4-4-- 
 
Essa parte e´rápida... 
G|-------------------------------------------------- 
D|-------------------------------------------------- 
A|-6-6-6-6-6-6-1-1-1-1-1-1-1-3-3-3-3-3-------------- 
E|-------------------------------------4-4-4-4-4-4-- 
 
Final: 
G|------------------------------------ 
D|------------------------------------ 
A|------------------------------------ 
E|-6-5-4/1---------------------------- 
 
Seqüência: 
Intro   1X 
Riff 1  4X 
Riff 2  4X 
Refrão  2X 
Riff 1  4X 
Riff 2  4X 
Refrão  2X 
Intro   2X 
Refrão  2X 
Final   1X 
 

  

Conseguiu tocar essa música? Ficou legal? Então, mostre para todo mundo no Você Canta, receba notas e comentários. Cante agora

Top cifras » Top artistas »
Anuncie no Cifras Termos de Uso Política de Privacidade Material de DivulgaçãoFale Conosco
Petaxxon
Cifras.com.br - Melhor e mais completo site de cifras e tablaturas do Brasil
Mais de 1 milhão de cifras cadastradas desde 2003
As informações contidas no Cifras.com.br são colaborações de seus usuários e podem conter erros, sendo assim, não se responsabiliza sobre nenhuma destas.
R7 Música
close
 
redimensionar