» Cifras.com.br » Letras de músicas » Notícias » TV Cifras » Guitar Pro » Gospel
Logo Cifras.com.br
Charlie Brown Jr.

Charlie Brown Jr.
Zóio de Lula

Escute esta músicas

Ano: 2003
Album: Acustico
Autor: (Chorão / Thiago Castanho / Pelado / Champignon / Marcão)

Tom

Formatação

colunas A+ A- cores

Nível

Iniciante

Nível: Iniciante

Transcrição

anônimo


corrigida por Acelot

  
Intro: 

G|----------------------| 
D|----------------------| 
A|--14h16-16-16-16-16\--| 
E|----------------------| 
B|----------------------| 

Verso: 

G|---------------------------| 
D|-------------------------2-| 
A|-4-4--2-4-2---2-2------2---| 
E|------------4------2-4-----| 
B|---------------------------| 

G|---------------------| 
D|---------------------| 
A|-4-4--2-4-2---2/16/--| 
E|------------4--------| 
B|---------------------| 

Chorus: 

G|----------------------------------------| 
D|-------1-2-1-----------------1-2-1----4-| 
A|-4-4-4--------2-2----2-4-4-4--------2---| 
E|-------------------4--------------------| 
B|----------------------------------------| 

G|--------------------------------------------| 
D|-----------1-2-1-----------------1-2-1----4-| 
A|---2-4-4-4--------2-2----2-4-4-4--------2---| 
E|-4---------------------4--------------------| 
B|--------------------------------------------| 

Bridge: 

G|-------------------------------------------------| 
D|-------------------------------------------------| 
A|-4-4----4----2-2---2-2----4-4----4---2-2---2-2---| 
E|------4---4------4-----4-------4---4-----4-----4-| 
B|-------------------------------------------------| 

G|------------------------------| 
D|------------------------------| 
A|-4-4----4----2-2---2-2----4-4-| 
E|------4---4------4-----4------| 
B|------------------------------| 

Solo: 

G|----------------------------------------------| 
D|-------------------------------4h6-4-2-4-2----| 
A|-4-4----4----2-2---2-2----4-4---------------2-| 
E|------4---4------4-----4----------------------| 
B|----------------------------------------------| 

Final: 

G|--------------------------------------------------| 
D|--------------------------------------------------| 
A|-4-4----4----2-2---2-2----4-4----4---2-2---2/16\--| 
E|------4---4------4-----4-------4---4-----4--------| 
B|--------------------------------------------------| 


  

top cifras charlie brown jr.
top cifras rock alternativo
ver mais cifras desse artista

letras do(a) Charlie Brown Jr.

Top cifras » Top artistas »
Anuncie no Cifras Termos de Uso Política de Privacidade Material de DivulgaçãoFale Conosco
Petaxxon Comunicação Online
Cifras.com.br - Melhor e mais completo site de cifras e tablaturas do Brasil
Mais de 1 milhão de cifras cadastradas desde 2003
As informações contidas no Cifras.com.br são colaborações de seus usuários e podem conter erros, sendo assim, não se responsabiliza sobre nenhuma destas.
R7 Música
close
 
redimensionar