» Cifras.com.br » Letras de músicas » Notícias » TV Cifras » Guitar Pro » Gospel
Charlie Brown Jr.

Zoio de Lula

Charlie Brown Jr. Escute esta e outras músicas enquanto navega no Cifras

Ano: 2003 - Album: Acustico

Autor: (Chorão / Thiago Castanho / Pelado / Champignon / Marcão)

Tom

C#m

Formatação

colunas A+ A- cores

Nível

Iniciante

Nível: Iniciante

Transcrição

anônimo


  Intro:
G|--------------|
D|--------------|
A|-12/-2--------| Obs: Slide bem lento.
E|--------------|

Entrada do Riff 1:
G|------------|
D|------------|
A|-14H16-16-16|
E|------------|

Riff 1:
G|-------------------------|
D|-----------------------2-|
A|-4-4-2-4-4--2-2------2---|
E|-----------4----4--2-----|

Refrão:
G|-----------------------------------|
D|-------1-2-1--------------1-2-1--4!|
A|-4-4-4-------2-2----4-4-4----------|
E|-----------------------------------|

Solo:
G|-----------------|
D|-----------------|
A|-4-4--4--2-2--2-2|
E|-----4-4-----2---|

Variação no solo:
G|----------------------|
D|-4H6-4----------------|
A|-------6-4--2-2---2-2-|
E|----------------2-----|
  

Top cifras » Top artistas »
Anuncie no Cifras Termos de Uso Política de Privacidade Material de DivulgaçãoFale Conosco
Petaxxon Comunicação Online
Cifras.com.br - Melhor e mais completo site de cifras e tablaturas do Brasil
Mais de 1 milhão de cifras cadastradas desde 2003
As informações contidas no Cifras.com.br são colaborações de seus usuários e podem conter erros, sendo assim, não se responsabiliza sobre nenhuma destas.
R7 Música
close
 
redimensionar