» Cifras.com.br » Letras de músicas » Notícias » TV Cifras » Guitar Pro » Gospel
Logo Cifras.com.br

Tom

E

Formatação

colunas A+ A- cores

Nível

Sem Nível

Nível: Sem Nível

Transcrição

enviada por vilela25


  Piano Bar 
Engenheiros do Hawaii 
 
 
( Versão Ao vivo 10.000 destinos ) 
 
 
O baixo entra logo depois que ele canta:... nada é uma palavra esperando tradução. 
G--------------------------------------------------------------------------------| 
D--------------------------------------------------------------------------------| 
A------4--4-7-6-4---------------2---4-4------------------------------------------| 
E-----------------7-1----3-3--3---3----------------------------------------------| 
 
Toda vez que falta luz, toda vez que algo nos falta 
 
G--------------------------------------------66h7h9-7-6--------------------------| 
D--------------------------------------------------------------------------------| 
A-------2-2------------3---4--4-6-4-6/7------------------------------------------| 
E----0-------4--4-4--4---4---------------5---------------------------------------| 
 
O invisível nos salta aos olhos, é, um salto no escuro da piscina 
G--------------------------------------------------------------------------------| 
D--------------------------------------------------------------------------------| 
A----------4---4-------2-2/------------------------------------------------------| 
E-----4--4-------2---2-------0---------------------------------------------------| 
 
O fogo ilumina muito, por muito pouco tempo, em muito pouco o tempo o fogo apagaE tudo um dia vira luz 
 
G--------------------------------------------------------------------------------| 
D--------------------------------------------------------------------------------| 
A-------2-2------------3---4--4-6-4-6/7------------------------------------------| 
E----0-------4--4-4--4---4---------------5--5-5----------------------------------| 
 
E toda vez que falta luz o invisível nos salta aos olhos 
 
G--------------------------------------------------------------------------------| 
D--------------------------------------------------------------------------------| 
A----------4---4-------2-3-4-----------------------------------------------------| 
E-----4--4-------2---2-----------------------------------------------------------| 
 
Ontem a noite, eu conheci uma guria, já era tarde, era quase dia... 
 
G--------------------------------------------------------------------------------| 
D--------------------------------------------------------------------------------| 
A-----------------3---4-4--------------------------------------------------------| 
E-----2?0h2--4--4---4------------------------------------------------------------| 
 
...parecia que era minha aquela solidão 
 
G--------------------------------------------------------------------------------| 
D--------------------------------------------------------------------------------| 
A------4--4-7-6-4---------------2---4-4------------------------------------------| 
E-----------------7-1----3-3--3---3----------------------------------------------| 
 
Solo 
G--------------------------------------------------------------------------------| 
D--------------------------------------------------------------------------------| 
A----444444-333333-222222-111111-----444444-333333-222222-111111-----------------| 
E--------------------------------------------------------------------------------| 
 
Eu conheci uma guria......parecia que era minha aquela solidão 
 
G--------------------------------------------------------------------------------| 
D--------------------------------------------------------------------------------| 
A-----------------3---4-4----------------------3---4--7--------------------------| 
E-----2?0h2--4--4---4---------2?0h2--4--4---4------------------------------------| 

  

top cifras engenheiros do hawaii
top cifras rock'n roll
ver mais cifras desse artista var letras desse artista
Top cifras » Top artistas »
Anuncie no Cifras Termos de Uso Política de Privacidade Material de DivulgaçãoFale Conosco
Petaxxon Comunicação Online
Cifras.com.br - Melhor e mais completo site de cifras e tablaturas do Brasil
Mais de 1 milhão de cifras cadastradas desde 2003
As informações contidas no Cifras.com.br são colaborações de seus usuários e podem conter erros, sendo assim, não se responsabiliza sobre nenhuma destas.
R7 Música
close
 
redimensionar