» Letras de músicas » Notícias » Video Aulas » Guitar Pro » Gospel
Fernandinho

Fernandinho

Nova Historia

ouvir música
ouvir música
enviado por
enviada por:
CLAUDI00
cifra enviada
sem correções
Cifras Cancelar Versão de Impressão
cifras

Fernandinho - Nova Historia

Tom:

  Riff do começo a quantidade de  vezes nao é  
necesariamente essa aew vcs escutam o cd 
riff1 
E---------------------------------------- 
A-7-7-7-7-7-7-7-5-5-5-5-5-5-5------------ 
D---------------------------------------- 
G---------------------------------------- 
riff2 - será q podes imaginar... 
E---------------------------------------- 
A---------------------------------------- 
D-----------------11-11-11--------------- 
G-11-11-11-11-9-9----------9-11-11-11---- 

E---------------------------------------- 
A------------------------------12-11-9--- 
D--------------11-11-11-9-9--9----------- 
G-11-11-11-11-9--9--9-------------------- 

e entre os riffs acima tem uma frescurinha no B 
na parte será q podes contar 

E--------7------------------------------- 
A----9-7-----7-5-4-2--------------------- 
D---------------------------------------- 
G---------------------------------------- 

fiquem na paz!!! 
  

top 5 | fernandinho
top gospel
Outras músicas do artista letras do(a) Fernandinho
Top cifras » Top artistas »
Anuncie Termos de Uso Política de Privacidade Material de DivulgaçãoFale Conosco
Petaxxon Comunicação Online
Cifras.com.br - Melhor e mais completo site de cifras e tablaturas do Brasil
Mais de 1 milhão de acordes de músicas cadastradas desde 2003
As informações contidas no nosso site são colaborações de seus usuários e podem conter erros, sendo assim, não nos responsabilizamos sobre nenhuma destas.
R7 Música
close
menos
mais
close
Cor dos acordes:

Cor da letra:

 

save
close
close
 
redimensionar