» Cifras.com.br » Letras de músicas » Notícias » TV Cifras » Guitar Pro » Gospel
Iron Maiden

22 Acacia Avenue

Iron Maiden Escute esta e outras músicas enquanto navega no Cifras

Ano: 1982 - Album: The Number of the Beast

Autor:

Tom

Formatação

colunas A+ A- cores

Nível

Sem Nível

Nível: Sem Nível

Transcrição

enviada por betobassmtuloko


  G-|--------||--------------|----------------|--------------|------------------| 
D-|--------||--------------|----------------|--------------|------------------| 
A-|-R----5-||-7--R---------|-R--------------|-5--R---------|-R-----5---5---55-| 
E-|--------||--------------|----------------|--------------|------------------| 
                                             
G-|--------------|----------------|----------------|------------------| 
D-|--------------|----------------|----------------|------------------| 
A-|-7--R---------|-R--------------|-5---R----------|-R-----5---5---55-| 
E-|--------------|----------------|----------------|------------------| 
 
       
G-|--------------|----------------|----------------|------------------| 
D-|--------------|----------------|----------------|------------------| 
A-|-3--R---------|-R---------5-55-|-7---R----------|-R----------7-6-5-| 
E-|--------------|----------------|----------------|------------------| 
 
     
G-|-----------------|-----------------|-----------------|-----------------| 
D-|-----------------|-----------------|-----------------|-----------------| 
A-|-3---3-3-3-3-3-3-|-5---5-5-5-5-5-5-|-7---7-7-7-7-7-7-|-7-7-7-7-7-7-6-5-| 
E-|-----------------|-----------------|-----------------|-----------------| 
 
G-|-----------------|-----------------|-----------------|-----------------| 
D-|-------------4h5-|-------------5h7-|-----------------|-----------------|(x3) 
A-|-3---3-3-3-3-----|-5---5-5-5-5-----|-5---7-7-7-7-7-7-|-7-7-7-7-7-7-6-5-| 
E-|-----------------|-----------------|-----------------|-----------------| 
 
     
G-|-----------------|-----------------|-----------------|-----------------|| 
D-|-----------------|-----------------|-----------------|-----------------|| 
A-|-3---3-3-3-3-3-3-|-5---5-5-5-5-5-5-|-7---R-----------|-R---------------|| 
E-|-----------------|-----------------|-----------------|-----------------|| 
 
 
G-|-----------------|-----------------|-----------------|-----------------| 
D-|-----------------|-----------------|-----------------|-----------------| 
A-|-3---3-3-3-3-3-3-|-5---5-5-5-5-5-5-|-----------------|-----------------| 
E-|-----------------|-----------------|-0---------------|-0---------------| 
 
                 
G-|---------||-------------------------|-------------------------| 
D-|---------||-------------------------|-------------------5-5-5-| 
A-|----10-\-||-7-7-7-7-7-7-7-7-7-7-7-7-|-7-7-7-7-7-7-7-7-7-------| 
E-|---------||-------------------------|-------------------------| 
 
                 
G-|---------||-------------------------|-------------------------| 
D-|---------||-------------------------|-------------------5-5-5-| 
A-|----10-\-||-7-7-7-7-7-7-7-7-7-7-7-7-|-7-7-7-7-7-7-7-7-7-------| 
E-|---------||-------------------------|-------------------------| 
 
      
G-|-------------------------|-------------------------| 
D-|-------------------------|-------------------------| 
A-|-7-7-7-7-7-7-7-7-7-7-7-7-|-7-7-7-7-7-7-7-7-7-7-7-7-| 
E-|-------------------------|-------------------------| 
 
     
G-|-------------------------|-------------------------| 
D-|-------5-5-5-4-4-4-5-5-5-|-------5-5-5-4-4-4-5-5-5-| 
A-|-3-3-3-------------------|-3-3-3-------------------| 
E-|-------------------------|-------------------------| 
 
       
G-|-------------------------|-------------------------|| 
D-|-------------------------|-------------------------|| 
A-|-7-7-7-7-7-7-7-7-7-7-7-7-|-7-7-7-7-7-7-7-7-7-7-7-7-|| 
E-|-------------------------|-------------------------|| 
 
 
G-|-------------------------|-------------------------| 
D-|-------------------------|-------------------------| 
A-|-3-R-3-3-3-3-3-R-3-3-3-3-|-5-R-5-5-5-5-5-R-5-5-5-5-| 
E-|->-----------------------|->-----------------------| 
 
      
G-|-------------------------|-------------------------| 
D-|-------------------------|-------------------------| 
A-|-2-R-2-2-2-2-2-R-2-2-2-2-|-3-R-3-3-3-3-3-R-3-3-3-3-| 
E-|->-----------------------|->-----------------------| 
 
     
G-|-------------------------|-------------------------| 
D-|-------------------------|-------------------------| 
A-|-3-R-3-3-3-3-3-R-3-3-3-3-|-5-R-5-5-5-5-5-R-5-5-5---| 
E-|->-----------------------|->------------------->---| 
 
      
G-|-------------------------|-------------------------| 
D-|-------------------------|-------------------------| 
A-|-7-7-7-7-7-7-7-7-7-7-5---|-7-R-7-7-7-7-7-7-7-7-7-7-| 
E-|->------------------->---|->-----------------------| 
 
 
      
G-|-------------------------|-------------------------| 
D-|-------------------------|-------------------------| 
A-|-3-R-3-3-3-3-3-R-3-3-3-3-|-5-R-5-5-5-5-5-R-5-5-5-5-| 
E-|->-----------------------|->-----------------------| 
 
       
G-|-------------------------|-------------------------| 
D-|-------------------------|-------------------------| 
A-|-2-R-2-2-2-2-2-R-2-2-2-2-|-3-R-3-3-3-3-3-R-3-3-3-3-| 
E-|->-----------------------|->-----------------------| 
 
       
G-|-------------------------|-------------------------| 
D-|-------------------------|-------------------------| 
A-|-3-R-3-3-3-3-3-R-3-3-3-3-|-5-R-5-5-5-5-5-R-5-5-5---| 
E-|->-----------------------|->------------------->---| 
 
      
G-|-------------------------|-------------------------| 
D-|-------------------------|-------------------------| 
A-|-7-7-7-7-7-7-7-7-7-7-5---|-7-R-7-7-7-7-7-7-7-7-7-7-| 
E-|->------------------->---|->-----------------------| 
 
G-|-------------------------|-5-4-2-4-2---2-----------| 
D-|-------------------------|-----------5---5-4-5-4---| 
A-|-2-R-2-2-2-2-2-R-2-2-2-2-|-----------------------5-| 
E-|->-----------------------|-------------------------| 
 
      
G-|-------------------------|-5-4-2-4-2---2-----------| 
D-|-------------------------|-----------5---5-4-5-4---| 
A-|-2-R-2-2-2-2-2-R-2-2-2-2-|-----------------------5-| 
E-|->-----------------------|-------------------------| 
 
 
G-||--------------------------||--------------------------| 
D-||--------------------------||--5-5-5-4-4-4-5-5-5-4-4-4-| (x4) 
A-||-5---7-7-7-7-7-7-7-7-7-7--||--------------------------| 
E-||->--->--------------------||--------------------------| 
 
 
Guitar Solo : 
 
     
G-|--------------------------|--------------------------| 
D-|--------------------------|----------3--2-0----------|  
A-|-7------------------------|-7---------------3-2------| 
E-|->------------------------|---------->-----------3---| 
 
    
G-||-------------11\12-11\12-|---------------11\12-11\12-| 
D-||-------------------------|---------------------------| 
A-||----7-7------------------|-5--5-5--------------------| 
E-||-0-----------------------|---------------------------| 
 
     {x4} 
G-|--------------------------|| 
D-|----------3--2-0----------||  
A-|-3---------------3-2------|| 
E-|---------->-----------3---|| 
 
Break : 
 
      
G-|-------------------------|-------------------------| 
D-|-------------------------|-------------------------| 
A-|-------------------------|-------------------------| 
E-|-0-0-0-0-0-0-0-0-0-0-0-0-|-0-0-0-0-0-0-0-0-0-0-0-0-| 
 
      
G-|-------------------------|-9-9-9-7-7-7-------------| 
D-|-------------------------|-------------9-9-9-------| 
A-|-7-7-7-7-7-7-7-7-7-7-7-7-|------------------101010-| 
E-|-------------------------|-------------------------| 
 
 
Transcrição de 22 Acacia Avenue : por betobass4ever@hotmail.com   <><> 
                                                                   .. 
                                                                   ~~   

  

top cifras iron maiden
top cifras heavy metal
ver mais cifras desse artista var letras desse artista
Top cifras » Top artistas »
Anuncie no Cifras Termos de Uso Política de Privacidade Material de DivulgaçãoFale Conosco
Petaxxon Comunicação Online
Cifras.com.br - Melhor e mais completo site de cifras e tablaturas do Brasil
Mais de 1 milhão de cifras cadastradas desde 2003
As informações contidas no Cifras.com.br são colaborações de seus usuários e podem conter erros, sendo assim, não se responsabiliza sobre nenhuma destas.
R7 Música
close
 
redimensionar