» Cifras.com.br » Letras de músicas » Notícias » TV Cifras » Guitar Pro » Gospel
Iron Maiden

Aces High

Iron Maiden Escute esta e outras músicas enquanto navega no Cifras

Ano: 1996 - Album: Iron Maidens

Autor: (Steve Harris)

Tom

Formatação

colunas A+ A- cores

Nível

Expert

Nível: Expert

Transcrição

enviada por betobassmtuloko


  G-11---------7---------11---------7---------11---------7--------|-------------- 
D-11---------7---------11---------7---------11---------7--------|.-7--7-7-7-7-7 
A--9---999---5---777----9---999---5---555----9---999---5--7-7-7-|.------------- 
E--------------------------------------------------------------|-------------- 
                                                               Fast 
 
G-----------------------------------------|----------------------------------- 
D-7--7--7--3--3-3-3-3-3--5--5-5-5-5-5-5--.|.---------------------------------- 
A----------------------------------------.|.---557-7-7-7-557-7-7-7-557-7-7-7-- 
E-----------------------------------------|----------------------------------- 
                            Play 4 times    Lyrics enter 
                                                            
 
G-----------|-------------------------------------4-------|------------------- 
D-----4----.|.--557-7-7-7-557-7-7-7-557-7-7-7-555----5---.|.------------------ 
A-555---5--.|.-------------------------------------------.|.-5--7-7-7-7--10--7 
E-----------|---------------------------------------------|------------------- 
Play 4 times                                Play 4 times 
 
 
G--------------------7-6-4-2-5-4-2-0------------------------------------------ 
D--------7--------------------------------------------------------7----------- 
A-7-7-7-----7-7-7-7--------------------5--7-7-7-7---10--7-7-7-7------7-7-7-7-- 
E----------------------------------------------------------------------------- 
 
G--5-4-2-0-2----|----------------------------------------------------|-------- 
D--------------.|.--------------------------------------------------.|---5--5- 
A--------------.|.--7--7-7-7-7--7-7-7-7-7-5-3--3-3-3-3--5--5-5-5-5--.|-------- 
E---------------|----------------------------------------------------|-------- 
                                                        Play 4 times 
 
G----------------------------------------------------------------------------- 
D-5-5-5--5-5-5-5-5-3--1-1-1-1--3--3-3-3-3--5--5-5-5-5--5-5-5-5-5-3--1-1-1-1-1- 
A----------------------------------------------------------------------------- 
E----------------------------------------------------------------------------- 
 
G----------------------------------------------------------------------------- 
D-3--3-7-3--5--5-5-5-5--5-5-5-5-5-3--1-1-1-1-1--3-3-3-3-3--5--5-5-5-5--5-5-5-5 
A----------------------------------------------------------------------------- 
E----------------------------------------------------------------------------- 
 
G---------------------------------.-----------------7-7-------.--------------- 
D-5-3--1-1-1-1-1--3-3-8-3---7-10-10-7-7-7-10-9-7--------7-10-10-7-7-7-10-9-7-- 
A------------------------------------------------10--------------------------- 
E----------------------------------------------------------------------------- 
 
G----------------.------------------7-7--------.-----------------.----------.- 
D----7-7---7-10-10-7-7-7-10-9-7----------7-10-10-7-7-7-10-9-7----7----7-10-10- 
A-10----------------------------10----------------------------10-------------- 
E----------------------------------------------------------------------------- 
 
G-----------------7-7--------.-----------------------------.------------------ 
D-7-7-7-10-9-7---------7-10-10-7-7-7-10-9-7----7-7---7-10-10-7-7-7-10-9-7----7 
A--------------10---------------------------10----------------------------10-- 
E----------------------------------------------------------------------------- 
 
G-----------.------------------.---------------------------------------------- 
D-7---7-10-10-7-7-7-10-9-7-----7-----7--7-7-7-7--7-7-7-7-7-5-3--3-3-3-3--5--5- 
A---------------------------10------------------------------------------------ 
E----------------------------------------------------------------------------- 
                                  Guitar solo 
 
G----------------------------------------------------------------------------- 
D-5-5-5--7--7-7-7-7--7-7-7-7-5-------------------------7--7-7-7-7--7-7-7-7-7-5 
A------------------------------3--3-3-3-3--5--5-5-5-5------------------------- 
E----------------------------------------------------------------------------- 
 
G----------------------------------------------------------------------------- 
D-3--3-3-3-3--5--5-5-5-5--7--7-7-7-7--7-7-7-7-7-5--------------------5----9--9 
A-------------------------------------------------3--3-3-3-3--5--5-5---5------ 
E----------------------------------------------------------------------------- 
 
G----------------------------------------------------------------------------- 
D-9-9-9--9-9-9-9-9-7-5--5-5-5-5--7-7-7-7-7--9--9-9-9-9--9-9-9-9-9-7----------- 
A-------------------------------------------------------------------5--5-5-5-5 
E----------------------------------------------------------------------------- 
 
G----------------------------------------------------------------------------- 
D------------9--9-9-9-9--9-9-9-9-9-7-5--5-5-5-5--7--7-7-7-7--9--9-9-9-9--9-9-9 
A-7-7-7-7-7------------------------------------------------------------------- 
E----------------------------------------------------------------------------- 
 
G--------------------------------------.-------------------7-7--------.------- 
D-9-9-7------------------7-------7-10-10-7-7-7-10-9-7-----------7-10-10-7-7-7- 
A--------5--5-5-5-5--7-7---7-7-------------------------10--------------------- 
E----------------------------------------------------------------------------- 
 
G------------------------.------------------7-7---------.-----------------.--- 
D-10-9-7-----7-7---7-10-10-7-7-7-10-9-7-----------7-10-10-7-7-7-10-9-7----7--- 
A---------10-----------------------------10----------------------------10----- 
E----------------------------------------------------------------------------- 
 
G-------.------------------7-7---------.------------------------------.------- 
D-7-10-10-7-7-7-10-9-7-----------7-10-10-7-7-7-10-9-7-----7-7---7-10-10-7-7-7- 
A-----------------------10-----------------------------10--------------------- 
E----------------------------------------------------------------------------- 
 
G-----------7-7----------.-------------------.--|----------------------------- 
D-10-9-7-----------7-10-10-7-7-7-10-9-7------7--|.---------------------------- 
A--------10------------------------------10-----|.--557-7-7-7-557-7-7-7-557-7- 
E-----------------------------------------------|----------------------------- 
 
G---------------|-------------------------------------4----|------------------ 
D---------4----.|.--557-7-7-7-557-7-7-7-557-7-7-7-555---5-.|------------------ 
A-7-7-555---55-.|.----------------------------------------.|-5-7-7-7-7-10-7-7- 
E---------------|------------------------------------------|------------------ 
Play 4 times                                 Play 4 times 
 
 
G---------------7-6-4-2-5-4-2-0---------------------------------5-4-2-0-2----- 
D-----7-----------------------------------------------7----------------------- 
A-7-7---7-7-7-7------------------5-7-7-7-7-10-7-7-7-7---7-7-7-7------------5-7 
E----------------------------------------------------------------------------- 
 
G----------------------------7-6-4-2-5-4-2-0---------------------------------- 
D------------------7------------------------------------------------7--------- 
A-7-7-7-10-7-7-7-7---7-7-7-7-------------------5-7-7-7-7-10-7-7-7-7---7-7-7-7- 
E----------------------------------------------------------------------------- 
 
G-5-4-2-0-2--|----------------------------------------------------|----------- 
D------------|.--------------------------------------------------.|--5--5-5-5- 
A------------|.--7--7-7-7-7--7-7-7-7-7-5-3--3-3-3-3--5--5-5-5-5--.|----------- 
E------------|----------------------------------------------------|----------- 
                                                 Play 4 times 
 
G----------------------------------------------------------------------------- 
D-5--5-5-5-5-5-3--1-1-1-1-1--3--3-3-3-3--5--5-5-5-5--5-5-5-5-5-3--1-1-1-1-1--3 
A----------------------------------------------------------------------------- 
E----------------------------------------------------------------------------- 
 
G----------------------------------------------------------------------------- 
D-333-7-3--5--5-5-5-5--5-5-5-5-5-3--1-1-1-1-1--3--3-3-3-3--5--5-5-5-5--5-5-5-5 
A----------------------------------------------------------------------------- 
E----------------------------------------------------------------------------- 
 
G----------------------------------------.-.-.-------------------------------- 
D-5-3--1-1-1-1-1--333-8-3---7--7-7-7-7-7-7-7-7--3--3-3-3-3-3--5--5-5-5-5-5--7- 
A----------------------------------------------------------------------------- 
E----------------------------------------------------------------------------- 
 
G-----------.-.-.-------------------------------------------.-.-.------------- 
D-7-7-7-7-7-7-7-7--3--3-3-3-3-3--5--5-5-5-5-5--7--7-7-7-7-7-7-7-7--3--3-3-3-3- 
A----------------------------------------------------------------------------- 
E----------------------------------------------------------------------------- 
 
G----------------------------------------------------------------------------- 
D-3--5--5-5-5-5-5--7--7-7-7-7-7-7-7-7--3------5----/7------------------------- 
A------------------------------------------------------0-0-0-0-0-0-0-0-0-0-0-0 
E----------------------------------------------------------------------------- 
                  Ritard.                  
 
G-------h--------------------------------------------------------------------- 
D------5-7-7-7-7-7-7-7-7-7-5---7-5---5-7-7-7-7-7-7-7-7-7--5-5-5--------------- 
A-0-0------------------------7-----7----------------------------7-7--5-5------ 
E-------------------------------------------------------------------------7-7- 
 
G------------------------------|| 
D--------------------------7\--|| 
A-----------0-0-0----------0---|| 
E-5-5--3--5--------------------|| 
 
 
Essa é ACES HIGH mtu da hora fmz pro mano q curte iron maiden vlw. 

  

top cifras iron maiden
top cifras heavy metal
ver mais cifras desse artista var letras desse artista
Top cifras » Top artistas »
Anuncie no Cifras Termos de Uso Política de Privacidade Material de DivulgaçãoFale Conosco
Petaxxon Comunicação Online
Cifras.com.br - Melhor e mais completo site de cifras e tablaturas do Brasil
Mais de 1 milhão de cifras cadastradas desde 2003
As informações contidas no Cifras.com.br são colaborações de seus usuários e podem conter erros, sendo assim, não se responsabiliza sobre nenhuma destas.
R7 Música
close
 
redimensionar