» Cifras.com.br » Letras de músicas » Notícias » TV Cifras » Guitar Pro » Gospel

Início » Heavy Metal » Iron Maiden » The Essential Iron Maiden »

Be Quick or Be Dead

Iron Maiden

Be Quick or Be Dead

Iron Maiden Escute esta e outras músicas enquanto navega no Cifras

Ano: 1996 - Album: The Essential Iron Maiden

Autor: (Bruce Dickinson / Janick Gers)

Tom

Formatação

colunas A+ A- cores

Nível

Fácil

Nível: Fácil

Transcrição

enviada por xxDiogo Brunoxx


  Steve Harris 
Taken from the Album "A Real Live One" 
 
 
 
                                                                                
G||------------------------|-------------------------|------------------------| 
D||------------------------|-------------------------|------------------------| 
A||------------------------|-------------------------|------------------------| 
E||--3----3--3--3----3--3--|--3--3--3--3--3----3--3--|--3----3--3--3----3--3--| 
 
 
                                                                            
------------------------|-----------------------|-------------------------| 
--3p-0--1p-0------------|-----------------------|-------------------------| 
--------------3---------|-----------------------|-------------------------| 
---------------------3--|------3--3--3----3--3--|--3--3--3--3--3----3--3--| 
 
 
                                                                           
------------------------|------------------------|-----------------------| 
------------------------|--3p-0--1p-0------------|-----------------------| 
------------------------|--------------3---------|-----------------------| 
--3----3--3--3----3--3--|---------------------3--|------3--3--3----3--3--| 
 
 
                                                                             
-------------------------|------------------------|------------------------| 
-------------------------|------------------------|--3p-0--1p-0------------| 
-------------------------|------------------------|--------------3---------| 
--3--3--3--3--3----3--3--|--3----3--3--3----3--3--|---------------------3--| 
 
 
                                                                            
-----------------------|-------------------------|------------------------| 
-----------------------|-------------------------|------------------------| 
-----------------------|-------------------------|------------------------| 
------3--3--3----3--3--|--3--3--3--3--3----3--3--|--3----3--3--3----3--3--| 
 
 
                                                                            
------------------------|------------------------|------------------------| 
--3p-0--1p-0------------|------------------------|------------------------| 
--------------3---------|------------------------|------------------------| 
---------------------3--|--1----3--3----3--3--3--|--3----3--3----3--3--3--| 
 
 
                                                                         
------------------------|---------------------|------------------------| 
------------------------|---------------------|------------------------| 
------------------------|--5------6------6/---|------------------------| 
--3----3--3----3--3--3--|---------------------|--1----3--3----3--3--3--| 
 
 
                                                                    
------------------------|--------------------|--------------------| 
------------------------|--------------------|--------------------| 
------------------------|--1------3----------|--6------5----------| 
--3----3--3----3--3--3--|--------------------|--------------------| 
 
 
                                                                            
------------------------|------------------------|------------------------| 
------------------------|------------------------|------------------------| 
------------------------|------------------------|------------------------| 
--1----3--3----3--3--3--|--3----3--3----3--3--3--|--3----3--3----3--3--3--| 
 
 
                                                                         
---------------------|------------------------|------------------------| 
---------------------|------------------------|------------------------| 
--5------6------6/---|------------------------|------------------------| 
---------------------|--1----3--3----3--3--3--|--3----3--3----3--3--3--| 
 
 
                                                                   
--------------------|--------------------|-----------------------| 
--------------------|--------------------|-----------------------| 
--1------3----------|--6------5----------|--3----3--3----3--3----| 
--------------------|--------------------|-----------------------| 
 
 
                                                                         
-----------------------|-----------------------|-----------------------| 
-----------------------|-----------------------|-----------------------| 
--3----3--3----3--3----|--1----1--1----1--1----|-----------------------| 
-----------------------|-----------------------|--1----1--1----1--1----| 
 
 
                                                                         
-----------------------|-----------------------|-----------------------| 
-----------------------|-----------------------|-----------------------| 
--3----3--3----3--3----|--3----3--3----3--3----|--1----1--1----1--1----| 
-----------------------|-----------------------|-----------------------| 
 
 
                                                                       
---------------------|-----------------------|-----------------------| 
---------------------|-----------------------|-----------------------| 
--6------5------6/---|--3----3--3----3--3----|--3----3--3----3--3----| 
---------------------|-----------------------|-----------------------| 
 
 
                                                                         
-----------------------|-----------------------|-----------------------| 
-----------------------|-----------------------|-----------------------| 
--1----1--1----1--1----|-----------------------|--3----3--3----3--3----| 
-----------------------|--1----1--1----1--1----|-----------------------| 
 
 
                                                                       
-----------------------|-----------------------|---------------------| 
-----------------------|-----------------------|---------------------| 
--3----3--3----3--3----|--1----1--1----1--1----|--6------5------6/---| 
-----------------------|-----------------------|---------------------| 
 
 
                                                                 
---------------------|--------------------|--------------------| 
---------------------|--------------------|--------------------| 
---------------5-----|--------------5-----|--------------3-----| 
--3---------------3--|-----------------3--|-----------------3--| 
 
 
                                                                    
-----------------------|---------------------|--------------------| 
------1--1p-0----------|---------------------|--------------------| 
-----------------3-----|---------------5-----|--------------5-----| 
--------------------3--|--3---------------3--|-----------------3--| 
 
 
                                                                     
--------------------|-----------------------|----------------------| 
--------------------|------1--1p-0----------|------7--5p-0---------| 
--------------3-----|-----------------3-----|----------------------| 
-----------------3--|--------------------3--|-------------------3--| 
 
 
                                                                       
----------------------|----------------------|-----------------------| 
------5--3p-0---------|------3--1p-0---------|------1--1p-0----------| 
----------------------|----------------------|-----------------3-----| 
-------------------3--|-------------------3--|--------------------3--| 
 
 
                                                                      
----------------------|----------------------|----------------------| 
------7--5p-0---------|------5--3p-0---------|------3--1p-0---------| 
----------------------|----------------------|----------------------| 
-------------------3--|-------------------3--|-------------------3--| 
 
 
                                                                         
-----------------------|-----------------------|-----------------------| 
------1--1p-0----------|-----------------------|-----------------------| 
-----------------3-----|-----------------------|-----------------------| 
--------------------3--|--1----1--1----1--1----|--1----1--1----1--1----| 
 
 
                                                                         
-----------------------|-----------------------|-----------------------| 
-----------------------|-----------------------|-----------------------| 
-----------------------|-----------------------|-----------------------| 
--3----3--3----3--3----|--3----3--3----3--3----|--1----1--1----1--1----| 
 
 
                                                                         
-----------------------|-----------------------|-----------------------| 
-----------------------|-----------------------|-----------------------| 
-----------------------|-----------------------|-----------------------| 
--1----1--1----1--1----|--3----3--3----3--3----|--3----3--3----3--3----| 
 
 
                                                                         
-----------------------|-----------------------|-----------------------| 
-----------------------|-----------------------|-----------------------| 
-----------------------|-----------------------|-----------------------| 
--1----1--1----1--1----|--1----1--1----1--1----|--3----3--3----3--3----| 
 
 
                                                                         
-----------------------|-----------------------|-----------------------| 
-----------------------|-----------------------|-----------------------| 
-----------------------|-----------------------|-----------------------| 
--3----3--3----3--3----|--1----1--1----1--1----|--1----1--1----1--1----| 
 
 
                                                                      
-----------------------|-----------------------|--------------------| 
-----------------------|-----------------------|--------------------| 
-----------------------|-----------------------|--1-----------------| 
--3----3--3----3--3----|--3----3--3----3--3----|---------1----------| 
 
 
                                                                 
--------------------|----------------------|-------------------| 
--------------------|----------------------|-------------------| 
--3-----------------|--1-------------------|-------------------| 
---------3----------|---------1------3--3--|--3----------------| 
 
 
                                                                 
--------------------|--------------------|---------------------| 
--------------------|--------------------|---------------------| 
--1-----------------|--3-----------------|--1------3------5----| 
---------1----------|---------3----------|---------------------| 
 
 
                                                                           
------------------|------------------|-------|------|------|------|------| 
------------------|------------------|-------|------|------|------|------| 
------------------|------------------|--8----|------|------|------|------| 
------------------|------------------|-------|------|------|------|------ 

  

top cifras iron maiden
top cifras heavy metal
ver mais cifras desse artista var letras desse artista
Top cifras » Top artistas »
Anuncie no Cifras Termos de Uso Política de Privacidade Material de DivulgaçãoFale Conosco
Petaxxon Comunicação Online
Cifras.com.br - Melhor e mais completo site de cifras e tablaturas do Brasil
Mais de 1 milhão de cifras cadastradas desde 2003
As informações contidas no Cifras.com.br são colaborações de seus usuários e podem conter erros, sendo assim, não se responsabiliza sobre nenhuma destas.
R7 Música
close
 
redimensionar