» Cifras.com.br » Letras de músicas » Notícias » TV Cifras » Guitar Pro » Gospel

Início » Rock'n Roll » Los Hermanos » »

O Vencedor

Los Hermanos

O Vencedor

Los Hermanos Escute esta e outras músicas enquanto navega no Cifras

Autor:

Tom

G

Formatação

colunas A+ A- cores

Nível

Iniciante

Nível: Iniciante

Transcrição

anônimo


  baixo: Kassin

intro                         4x
G--------------------------------|
D-----5-5---5--3-3-2-2-----------|
A----------5-5---------5-5-3h5p3-|
E-3-3----------------------------|

"olha lá..."                                       2x                                
G-----------------------------------------------------|
D-----------------------------------------------------|
A-----------------------------------------------------|
E--33--3-3--3--11-1-1--1--33-3-3-3---11-00-00-11------|


"olha lá quem acha que perder..." 4x     
G---------------------------------|
D-----5-5---5--3-3-2-2------------|
A----------5-5---------5-5-3h5p3--|
E-3-3-----------------------------|


"Eu que já não quero mais..." 
G-----------------------------------------------|
D-----------------------------------------------|
A-5~---5--7~----7---5~---5-5-7-8-7~--7-6-5~-----|
E----5-------7---------5------------------------|


"Levo a vida devagar..."
G--------------------------------|
D--------------------------------|
A-55---5--77---7/----------------|
E----5-------7-------------------|

"Pra não faltar amor..."              4x "...no coração..."
G--------------|-------------------------|--------------------------|
D--------------|-------------------------|--------------------------|
A--------------|-33-3-3--3---11-00-------|-0~-----------------------|
E-1111--3333---|--------3-3--------33-11-|--------------------------|

pausa

"...não faz isso..."                               2x                          "ah..."
G-------------------------|--------------------------|--------------------------------|
D-----77--77---7----------|--7---77-77---7-----------|--7--77-77--7-------------------|
A--5---------7-7-55-5-5--|-7-7---------7-7---55-5-5-|-7-7-------7-7--55-5------------|
E-------------------------|--------------------------|--------------------77--7-0(8x)-|

metais                     3x
G------------------------------|--------------------|
D------------------------------|--------------------|
A------------------------------|--------------------|
E--33-11-00-0h1-3-55-0-5-0-5-0-|-33-11-00-0h1-3--0~-|

"Eu que já não sou assim..."   (ouça bem esse trecho porque é complicado)
G------------------------------------------------------------------|
D---22-2----4---------22--------4~-4-3-2------2-------4------------|
A-2--------4-4-------2---------4-------------2-2-----4-4-----------|
E--------2----2---0----------2-------------0~------2~----2----------|

"Faço o melhor..."
G-------------------------------------------------|
D-------------------------------------------------|
A----------------------10-10-10-10-12-12-12-12---|
E-3333-5555-3333-5555-----------------------------|

"...em paz..."                                                                              2x  
G-------------------------|-------------------------------------------------------------------7|
D-------------------------|--------------10-10-99-77----------------10-10-99-77-------------7--|
A-55-5-5--5---33-22-------|-55-5-5---5---------------10-10---55-5-5-------------10-10--9-10----|
E--------5-5--------55-33-|---------5-5--------------------------------------------------------|

a afinação do baixo é meio tom abaixo (como todas as musicas dos Los Hermanos)
  

Conseguiu tocar essa música? Ficou legal? Então, mostre para todo mundo no Você Canta, receba notas e comentários. Cante agora

Top cifras » Top artistas »
Anuncie no Cifras Termos de Uso Política de Privacidade Material de DivulgaçãoFale Conosco
Petaxxon
Cifras.com.br - Melhor e mais completo site de cifras e tablaturas do Brasil
Mais de 1 milhão de cifras cadastradas desde 2003
As informações contidas no Cifras.com.br são colaborações de seus usuários e podem conter erros, sendo assim, não se responsabiliza sobre nenhuma destas.
R7 Música
close
 
redimensionar