» Cifras.com.br » Letras de músicas » Notícias » TV Cifras » Guitar Pro » Gospel

Tom

E

Formatação

colunas A+ A- cores

Nível

Iniciante

Nível: Iniciante

Transcrição

enviada por KURT CONBAI


   
  
Ótima abertura para esse disco. Um slap muito doido 
o som parece Red Hot dos bons tempos, mas a voz 
inconfundível de Dinho deixa claro...Mamonas!!! 
Escute antes de tocar, ok? 
 
P=Pop 
S=Slap 
 
intro: 
G-|------------------------|---------------|-----------------> 
D-|------------------------|-----------5-7-|-----------------> 
A-|---5-5---5-5------------|---5-5-5-7-----|---5-5-(bateria)-> 
E-|-0-----0-----(guitarra)-|-0-------------|-0---------------> 
    P S S P S S		     P S S S S S S   P S S 
 
intro 2: 
G-|---------------------------------------------------------> 
D-|---------------------------------------------------------> 
A-|---------------------------------------------------------> 
E-|-0--0--0--0--0--0--0--2-3--0--0--0--0--0--0--0-(scratch)-> 
 
("Eu queria um apartamento no Guarujá...") 
G-|------------------|------------------|------------------| 
D-|----5---5---------|----5---5---------|----5---5---------| 
A-|-7----7---7-----5-|-7----7---7-----5-|-7----7---7-----5-| 
E-|------------5-7---|------------5-7---|------------5-7---| 
 
refrão: ("MONEY, que é GOOD e nós num HAVE...") 
G-|----------------------------------------|---------------> 
D-|----------------------------------------|---------------> 
A-|----------------------------------------|---5-5---5-5---> 
E-|-3-33-0-1-11-1/3-33-0-1-11/3-33-0-1-1-1-|-0-----0-----0-> 
					     P S S P S S P 
 
G-|----------------------------------------|---|-> 
D-|----------------------------------------|---|-> 
A-|----------------------------------------|---|-> 
E-|-3-33-0-1-11-1/3-33-0-1-11/3-33-0-1-1-1-|-0-|-> depois toque "intro 2" 
 
("Mas a pior de todas é minha mulher...") 
G-|------------------|------------------|------------------| 
D-|----5---5---------|----5---5---------|----5---5---------| 
A-|-7----7---7-----5-|-7----7---7-----5-|-7----7---7-----5-| 
E-|------------5-7---|------------5-7---|------------5-7---| depois "refrão", depois "intro 2" (no lugar no "2-3", scratch) 
 
toque parte acima ("Mas a pior de todas...") e refrão várias vezes 
 
final: slap inicial c/variações... 
 
 
 
 
se quiser tocar o "intro 2" igual a guitarra, aqui está: 
G-|-------------------------------7-8-9-|-----------------------------------| 
D-|---7-6-5---0-5-------7-6-5---0-------|---7-6-5---0-5-------7-6-5---0-----| 
A-|-7-------7-----5h7b8-------7---------|-7-------7-----5h7b8-------7-------| 
E-|-------------------------------------|-------------------------------2-3-| 
  

Top cifras » Top artistas »
Anuncie no Cifras Termos de Uso Política de Privacidade Material de DivulgaçãoFale Conosco
Petaxxon Comunicação Online
Cifras.com.br - Melhor e mais completo site de cifras e tablaturas do Brasil
Mais de 1 milhão de cifras cadastradas desde 2003
As informações contidas no Cifras.com.br são colaborações de seus usuários e podem conter erros, sendo assim, não se responsabiliza sobre nenhuma destas.
R7 Música
close
 
redimensionar