» Letras de músicas » Notícias » Video Aulas » Guitar Pro » Gospel
Oficina G3

Oficina G3

Novos céus (solo)

ouvir música
ouvir música
enviado por
enviada por:
eduardo_lyvio
cifra enviada
sem correções
Cifras Cancelar Versão de Impressão
cifras

Oficina G3 - Novos céus (solo)

Tom:

  Durante o solo Duca Faz: 
Riff 1 
G--------------------------------------------------- 
D--------------------------------------------------- 
A-------4/6---4---2---------------------------2---4- 
E--4----------------4---2---4---0---2---4----------- 
 
Riff 2 
G--------------------------------------------------- 
D-4/6---4---6--------------------------------------- 
A--------------4-----2/4--2------------------------- 
E-----------------4--------------------------------- 
 
 
 

  

top 5 | oficina g3
top gospel
Outras músicas do artista letras do(a) Oficina G3
Top cifras » Top artistas »
Anuncie Termos de Uso Política de Privacidade Material de DivulgaçãoFale Conosco
Petaxxon Comunicação Online
Cifras.com.br - Melhor e mais completo site de cifras e tablaturas do Brasil
Mais de 1 milhão de acordes de músicas cadastradas desde 2003
As informações contidas no nosso site são colaborações de seus usuários e podem conter erros, sendo assim, não nos responsabilizamos sobre nenhuma destas.
R7 Música
close
menos
mais
close
Cor dos acordes:

Cor da letra:

 

save
close
close
 
redimensionar