» Cifras.com.br » Letras de músicas » Notícias » TV Cifras » Guitar Pro » Gospel
Red Hot Chili Peppers

Dani california

Red Hot Chili Peppers Escute esta e outras músicas enquanto navega no Cifras

Ano: 2006 - Album: Stadium Arcadium

Autor: (Anthony Kiedis / Chad Smith / Flea / John Frusciante)

Tom

Am

Formatação

colunas A+ A- cores

Nível

Avançado

Nível: Avançado

Transcrição

enviada por _Doug_


  Verso 
G-|-------------------7-------------------|- 
D-|-----7-----5-----------5h7-5-----------|- 
A-|-------------8-5-5---7-------7-5-------|- 
E-|-5-5---3-3-----------------------------|- 
 
G-|-------------------7-------------------|- 
D-|-----7-----5---------------------------|- 
A-|-------------8-5-5---4---5---7---------|- 
E-|-5-5---3-3-------------5---5-----------|- 
 
G-|-------------------7-------------------|- 
D-|-----7-----5-----------5h7-5-----------|- 
A-|-------------8-5-5---7-------7-5-------|- 
E-|-5-5---3-3-----------------------------|- 
 
G-|-------------------7-------------------|- 
D-|-----7-----5-----------5h7-5-7-5-------|- 
A-|-------------8-5-5---7-----------7-----|- 
E-|-5-5---3-3-----------------------------|- 
 
G-|-------------------7-----------5-------|- 
D-|-----7-----5---------------5h7---7-5---|- 
A-|-------------8-5-5-----5h7-----------7-|- 
E-|-5-5---3-3-----------5-----------------|- 
 
G-|-------------------7-------------------|- 
D-|-----7-----5-----------5h7-5-----------|- 
A-|-------------8-5-5---7-------7-5-------|- 
E-|-5-5---3-3-----------------------------|- 
 
G-|-------------------7-------------------|- 
D-|-----7-----5-------------7---7-5-------|- 
A-|-------------8-5-5---7-----4-----7-5---|- 
E-|-5-5---3-3-------------5---------------|- 
 
G-|-------------------7-------------------|- 
D-|-----7-----5-----------5h7-5-----------|- 
A-|-------------8-5-5---7-------7-5-------|- 
E-|-5-5---3-3-----------------------------|- 
 
G-|-------------------7-----------7---------7---------7-----|- 
D-|-----7-----5---------------------------------------------|- 
A-|-------------8-5-5---7-5-5-5-5---5-5-5-5---5-5-5-5---5-5-|- 
E-|-5-5---3-3-----------------------------------------------|- 
 
 
Refrão 4x 
G-|------------------------------|- 
D-|------------------------------|- 
A-|-------3--3----3h5-5-5-5-5----|- 
E-|-1--1--------5-------------3--|- 
 
G-|------------------------------------------------|- 
D-|------------------------------------------------|- 
A-|-------3--3----3h5-5-5-5-5-5-5-5--5-5-5--5--5---|- 
E-|-1--1--------5----------------------------------|- 
 
 
Verso II 
G-|-------------------7-------5--------|- 
D-|-----7-----5-----------5h7---7-5----|- 
A-|-------------8-5-5---7-----------7--|- 
E-|-5-5---3-3--------------------------|- 
 
G-|-------------------7-----------------|- 
D-|-----7-----5-----------5h7p5-------5-|- 
A-|-------------8-5-5---7-------7-5-5---|- 
E-|-5-5---3-3---------------------------|- 
 
G-|-------------------7---------------|- 
D-|-----7-----5-----------5h7-5-------|- 
A-|-------------8-5-5---7-------7-5---|- 
E-|-5-5---3-3-------------------------|- 
 
G-|-------------------7------------------|- 
D-|-----7-----5-----------------7--7-5---|- 
A-|-------------8-5-5---7-5-5h7--------7-|- 
E-|-5-5---3-3----------------------------|- 
 
G-|-------------------7-----------7---------7---------7-----|- 
D-|-----7-----5---------------------------------------------|- 
A-|-------------8-5-5---7-5-5-5-5---5-5-5-5---5-5-5-5---5-5-|- 
E-|-5-5---3-3-----------------------------------------------|- 
 
 
Refrão 4x 
G-|------------------------------|- 
D-|------------------------------|- 
A-|-------3--3----3h5-5-5-5-5----|- 
E-|-1--1--------5-------------3--|- 
 
G-|------------------------------------------------|- 
D-|------------------------------------------------|- 
A-|-------3--3----3h5-5-5-5-5-5-5-5--5-5-5--5--5---|- 
E-|-1--1--------5----------------------------------|- 
 
 
Bridge 3x 
G-|--------------------|- 
D-|--------------------|- 
A-|-2-2--2-2-----------|- 
E-|-----------3-3--2-2-|- 
 
G-|--------------------------|- 
D-|--------------------------|- 
A-|-2-2--2-2--2-2--2h3-5-7-5-|- 
E-|--------------------------|- 
 
 
Verso III 
G-|-------------------7---------------|- 
D-|-----7-----5-----------5h7-5-------|- 
A-|-------------8-5-5---7-------7-5---|- 
E-|-5-5---3-3-------------------------|- 
 
G-|-------------------7----------------|- 
D-|-----7-----5-----------5h7--7-5-----|- 
A-|-------------8-5-5---7----------7---|- 
E-|-5-5---3-3------------------------5-|- 
 
G-|-------------------7---------------|- 
D-|-----7-----5-----------5h7-5-------|- 
A-|-------------8-5-5---7-------7-5---|- 
E-|-5-5---3-3-------------------------|- 
 
G-|-------------------7-----------7---------7---------7-----|- 
D-|-----7-----5---------------------------------------------|- 
A-|-------------8-5-5---7-5-5-5-5---5-5-5-5---5-5-5-5---5-5-|- 
E-|-5-5---3-3-----------------------------------------------|- 
 
G-|----9---9-9-9-9-9-9-----------|- 
D-|------------------------------|- 
A-|-7----7-----------------------|- 
E-|--------------------0-0-0-0-0-|- 
 
Refrão 4x 
G-|------------------------------|- 
D-|------------------------------|- 
A-|-------3--3----3h5-5-5-5-5----|- 
E-|-1--1--------5-------------3--|- 
 
G-|------------------------------------------------|- 
D-|------------------------------------------------|- 
A-|-------3--3----3h5-5-5-5-5-5-5-5--5-5-5--5--5---|- 
E-|-1--1--------5----------------------------------|- 
 
Refrão 4x 
G-|------------------------------|- 
D-|------------------------------|- 
A-|-------3--3----3h5-5-5-5-5----|- 
E-|-1--1--------5-------------3--|- 
 
G-|------------------------------------------------|- 
D-|------------------------------------------------|- 
A-|-------3--3----3h5-5-5-5-5-5-5-5--5-5-5--5--5---|- 
E-|-1--1--------5----------------------------------|- 
 
 
Solo  
G-|-----------------------------------|- 
D-|-----------------------------------|- 
A-|---------3-3-3-3-3-3-3h5-5-5-5-5-5-|- 
E-|-1--1-1----------------------------|- 
 
G-|---------------------------------------------|- 
D-|-------------------------------------3-------|- 
A-|---------3-3-3-3-3-3-3h5-5-5-5-5-3h5---5p3h5-|- 
E-|-1--1-1--------------------------------------|- 
 
G-|-----------------------------------|- 
D-|-----------------------------------|- 
A-|---------3-3-3-3-3-3-3h5-5-5-5-5-5-|- 
E-|-1--1-1----------------------------|- 
 
G-|-------------------------------------------7-5---7-5---7-5----7-5---7-5---|- 
D-|-----------------------------------------------7-----7-----7------7-----5-|- 
A-|---------3-3-3-3-3-3-3h5-5-5-5-5-5-5-5-5-5--------------------------------|- 
E-|-1--1-1-------------------------------------------------------------------|- 
 
G-|-----------------------------------|- 
D-|-----------------------------------|- 
A-|---------3-3-3-3-3-3-3h5-5-5-5-5-5-|- 
E-|-1--1-1----------------------------|- 
 
G-|-----------------------------------|- 
D-|-----------------------------------|- 
A-|---------3-3-3-3-3-3-3h5-5-5-5-5-5-|- 
E-|-1--1-1----------------------------|- 
 
Fim 
G-|-----------------------------|- 
D-|-----------------------------|- 
A-|-----------------------------|- 
E-|-1-1-1-1-1-1-1-1-1-1-1-1-1-1-|- 
 
G-|-------------------------------------|- 
D-|-------2-2/3-5-5/7-7/8-8/10-10/12-12-|- 
A-|---2-3-------------------------------|- 
E-|-5-----------------------------------|- 

  

top cifras red hot chili peppers
top cifras rock alternativo
ver mais cifras desse artista var letras desse artista
Top cifras » Top artistas »
Anuncie no Cifras Termos de Uso Política de Privacidade Material de DivulgaçãoFale Conosco
Petaxxon Comunicação Online
Cifras.com.br - Melhor e mais completo site de cifras e tablaturas do Brasil
Mais de 1 milhão de cifras cadastradas desde 2003
As informações contidas no Cifras.com.br são colaborações de seus usuários e podem conter erros, sendo assim, não se responsabiliza sobre nenhuma destas.
R7 Música
close
 
redimensionar