» Cifras.com.br » Letras de músicas » Notícias » TV Cifras » Guitar Pro » Gospel

Início » Pop Music » Scracho » »

Divina Comédia

Scracho

Divina Comédia

Scracho Escute esta e outras músicas enquanto navega no Cifras

Autor:

Tom

F#m

Formatação

colunas A+ A- cores

Nível

Iniciante

Nível: Iniciante

Transcrição

enviada por P!ATD


  Intro 
G--------------------------------------------------------------------------------------------------- 
D--------------------------------------------------------------------------------------------------- 
A-0-55---0-5540------------------------------------------------------------------------------------- 
E--------------------------------------------------------------------------------------------------- 

Riff 
G---------------------------------------------------------------------------------------------------- 
D------14-12-11-------14s16-------754-------679------14-12-11-------14s16---------------------------- 
A-0-0------------12-12----------5-5-----5s7-7----7-0-0-----------12-12--------5-5457542-------------- 
E--------------------------------2----------------------------------------------------2-------------- 

G-----------------------------------------------------------------------------------------------9--10-- 
D------14-12-11-------14s16-------754-------679------14-12-11-------14s16---------------------------- 
A-0-0------------12-12----------5-5-----5s7-7----7-0-0-----------12-12--------5-5457--8---9---------- 
E--------------------------------2----------------------------------------------------2-------------- 

Estrófe 
G------------------------------9--10----------------------------------------------------------------- 
D-------7-7-7----------------------------------------------------------7-7s97------------------------ 
A-----7-------7--7-7--7-5s7--8---9-9-9-9-9--9-5-5-5-5-5-5----7--------7-7-7-7-7-7-------------------- 
E-5-5----------5-----7-----------------9------9-------5------5-5-5--------------7------7------------- 

“Quanto tempo faz...” 
G---------------------------------------------------------------------------------------------------- 
D-----77754--------99976-------7-77--------------------------7-7------------------------------------- 
A-555-------5--777--------7---7------7-7s9-9-9-99---5-5-5-----5--7-7-7-7-7--------------------------- 
E------------------------------5-5--------5------9-----9-2---5--------5----7------7-0---------------- 

Ponte 
G----------------------------------------------------------------------------------------------------- 
D----------------------------------------------------------------------------------------------------- 
A-----------------------979797--79797---5-5-5-5--5-5-5s7---------------------------------------------- 
E-9797979-7979797----------2--------2--5-5-5--5-5-5----0-0-0-0-0-0-4---------------------------------- 

Riff 2 
G---------------------------------------------------------------------------------------------------- 
D------14-12-11-------14s16-------754-------679------14-12-11-------14s16------------15-------------- 
A-0-0------------12-12----------5-5-----5s7-7----7-0-0-----------12-12--------5-545------------------ 
E--------------------------------2----------------------------------------------------2--------13---- 

Estrofe 2 
G---------------------------------------------------------------------------------------------------- 
D-----------------------------------7-7s97----------------------------------------------------------- 
A-9-9-9-9-9-9-5-5-5-5-5-5----7--------7-7-7-7-7--7--------------------------------------------------- 
E-----9------9------5------5-5-5--------------7------7----------------------------------------------- 

“Quanto tempo faz...” 
G-------------------------------------------------------------------------------------------------- 
D-----77754--------99976-------7-77--------------------------7-7----------------------------------- 
A-555-------5--777--------7---7------7-7s9-9-9-99---5-5-5-----5--7-7-7-7-7------------------------- 
E------------------------------5-5--------5------9-----9-2---5--------5----7------7-0-------------- 

Ponte 
G---------------------------------------------------------------------------------------------- 
D---------------------------------------------------------------------------------------------- 
A-----------------------979797--79797---5-5-5-5--5-5-5s7--------------------------------------- 
E-9797979-7979797----------2--------2--5-5-5--5-5-5----0-0-0-0-0-0-4-------------------------- 

Riff 3 
G---------------------------------------------------------------------------------------------- 
D------14-12-11-------14s16-------754-------679------14-12-11---------------------------------- 
A-0-0------------12-12----------5-5-----5s7-7----7-0-0-----------12------------5-5457---------- 
E--------------------------------2------------------------------------------------------------- 

Ragga 
G---------------------------------------------------------------------------------------------- 
D----------------4--------------2----------------4--------------2------------------------------ 
A------------------55--5-5------------------------55--5-5---------------555-777----------55---- 
E-55-0-5-0-22------5-----00---55-0-5-0-22------5-----00-------5-2----------555-222---0--------- 

Dub 
G--------------------------------------------------------------------------------------------- 
D-----------------------4--------------------------------------------------------------------- 
A-5-7-444424----------5555-5-7777------------------------------------------------------------- 
E---------------22220---------5--------7-0---------------------------------------------------- 

Ponte 
G----------------------------------------------------------------------------------------- 
D----------------------------------------------------------------------------------------- 
A-----------------------979797--79797---5-5-5-5--5-5-5s7---------------------------------- 
E-9797979-7979797----------2--------2--5-5-5--5-5-5----0-0-0-0-0-0-4---------------------- 

Riff 4 
G--------------------------------------------------------------------------------------------------- 
D------14-12-11-------14s16-------754-------679------14-12-11-------14s16--------------------------- 
A-0-0------------12-12----------5-5-----5s7-7----7-0-0-----------12-12--------5-5457542------------- 
E--------------------------------2----------------------------------------------------2------------- 

G------------------------------------------------------------------------------------9-10----- 
D-----14-12-11-------14s16-----754------679------14-12-11------14s16-------------------------- 
A0-0-----------12-12--------5-5----5s7-7----7-0-0----------12-12------5-5457542--754---------- 
E----------------------------2-------------------------------------------------2----------5-5-5-545 
  

top cifras scracho
top cifras pop music
ver mais cifras desse artista var letras desse artista
Top cifras » Top artistas »
Anuncie no Cifras Termos de Uso Política de Privacidade Material de DivulgaçãoFale Conosco
Petaxxon Comunicação Online
Cifras.com.br - Melhor e mais completo site de cifras e tablaturas do Brasil
Mais de 1 milhão de cifras cadastradas desde 2003
As informações contidas no Cifras.com.br são colaborações de seus usuários e podem conter erros, sendo assim, não se responsabiliza sobre nenhuma destas.
R7 Música
close
 
redimensionar