» Cifras.com.br » Letras de músicas » Notícias » TV Cifras » Guitar Pro » Gospel

Início » Diversos » Super Mario » »

Super Mario Bross Tab.

Super Mario

Super Mario Bross Tab.

Super Mario Escute esta e outras músicas enquanto navega no Cifras

Autor:

Tom

Formatação

colunas A+ A- cores

Instrumento

cifras baixover outros instrumentos

Nível

Iniciante

Nível: Iniciante

Transcrição

enviada por MarcosArismendi


  Intro 
G------------0----|| 
D--2-2-2---2------|| 
A--------3--------|| 
E--------------3--|| 


G-----------------||------0-2---0----------||-----------------||------0-2---0----------|| 
D-----------------||----2-----3---2---0----||-----------------||----2-----3---2---0----|| 
A--3-----0-2-1-0--||--3-------------3---2--||--3-----0-2-1-0--||--3-------------3---2--|| 
E----3-0----------||-----------------------||----3-0----------||-----------------------|| 

G--0----------------------||--0---------5-5-5--||-0----------------------||------------|| 
D----4-3-1-2-----------0--||----4-3-1-2--------||---4-3-1-2-----------0--||--1-0-------|| 
A--------------0-3-0-3----||-------------------||-------------0-3-0-3----||------3-----|| 
E-------------------------||-------------------||------------------------||------------|| 

G--0----------------------||--0---------5-5-5--||-0----------------------||------------|| 
D----4-3-1-2-----------0--||----4-3-1-2--------||---4-3-1-2-----------0--||--1-0-------|| 
A--------------0-3-0-3----||-------------------||-------------0-3-0-3----||------3-----|| 
E-------------------------||-------------------||------------------------||------------|| 

G----------||------||---------||------0-|| 
D-----02---||----02||----01---||222-2---|| 
A-3330—-30-||3330--||3330--30-||---3----|| 
E---------3||------||--------3||-------3|| 


G-----------------||------0-2---0----------||-----------------||------0-2---0----------|| 
D-----------------||----2-----3---2---0----||-----------------||----2-----3---2---0----|| 
A--3-----0-2-1-0--||--3-------------3---2--||--3-----0-2-1-0--||--3-------------3---2--|| 
E----3-0----------||-----------------------||----3-0----------||-----------------------|| 

G----------4-8-11-8||---------5-9-12-9||---------7-11-14-14-14-14-16/--|| 
D------1-4---------||-----2-5---------||-----4-7-----------------------|| 
A----2-------------||---3-------------||---5---------------------------|| 
E--2---------------||-3---------------||-5-----------------------------|| 

G----------4-8-11-8||---------5-9-12-9||---------7-11-14-14-14-14-16/--|| 
D------1-4---------||-----2-5---------||-----4-7-----------------------|| 
A----2-------------||---3-------------||---5---------------------------|| 
E--2---------------||-3---------------||-5-----------------------------|| 


cualquier duda al msn :D 
  

top cifras super mario
top cifras diversos
ver mais cifras desse artista var letras desse artista
Top cifras » Top artistas »
Anuncie no Cifras Termos de Uso Política de Privacidade Material de DivulgaçãoFale Conosco
Petaxxon Comunicação Online
Cifras.com.br - Melhor e mais completo site de cifras e tablaturas do Brasil
Mais de 1 milhão de cifras cadastradas desde 2003
As informações contidas no Cifras.com.br são colaborações de seus usuários e podem conter erros, sendo assim, não se responsabiliza sobre nenhuma destas.
R7 Música
close
 
redimensionar