» Cifras.com.br » Letras de músicas » Notícias » TV Cifras » Guitar Pro » Gospel
Logo Cifras.com.br
Victor e Léo

Fada

Victor e Léo Escute esta e outras músicas enquanto navega no Cifras

Ano: 2007 - Album: Ao Vivo

Autor:

Tom

A

Formatação

colunas A+ A- cores

Nível

Iniciante

Nível: Iniciante

Transcrição

enviada por iurycatita


  Fada – Victor e Leo 
enviada por: iurycatita 

  Fada, fada querida. Dona da minha Vida  
G |--------------------------------------------| 
D |--------------------------------------------| 
A |--------------------------------------------| 
E |-5-5--5-5-432-2--2-2--45-5--5-5-432-2--2-2--| 

  Você se foi, levou meu calor, você se foi, mas não  
me levou...  
G |-----------------------------------------------| 
D |-----------------------------------------------| 
A |-----------------------------------------------| 
E |-0-0--0-0—1-2-2--2-2-2--0-0--0-0-1-2-2-----0*--| 

  Lua, lua de encanto, ouça para quem eu canto  
G |--------------------------------------------| 
D |--------------------------------------------| 
A |--------------------------------------------| 
E |-5-5--5-5-432-2--2-2--45-5--5-5-432-2--2-2--| 

  Ela Levou minha magia, mas ela é minha alegria....  
G |-----------------------------------------------| 
D |-----------------------------------------------| 
A |-----------------------------------------------| 
E |-0-0--0-0—1-2-2--2-2-2--0-0--0-0-1-2-2-----0*--| 

  Vejo uma luz, uma estrela bilhar, sinto um cheiro de  
perfume no ar, Vejo minha Fada e sua vara de condão, 
tocando meu coração.  
G |-----------------------------------------------| 
D |-------2-2----------------------2-2------------| 
A |-5-5-4-------------------5-5-4------5-5----0---| 
E |------------5-5-432-2-2-------------------4----| 

  Madrugada de amor que não vai acabar, Se estou 
sonhando, não quero mais acordar, Minha história linda, 
meu conto de amor..... 
G |--------------------------------------------| 
D |-----------------------------2-2------------| 
A |-----------------------5-5-4----------------| 
E |-5-5-432-2--5-5-432-2------------5-5--0-0---| 

  Algo aqui me diz que essa paixão não é em vão, o meu  
sentimento é bem mais que uma emoção, eu espero o tempo 
que for, minha fada do amor 
G |-------------------------------------------| 
D |----------------------------2-2------------| 
A |-----------------------5-5-------5-5----0--| 
E |-5-5-432-2--5-5-432-2-----------------4----| 

  (SOLO) 
G |-----------------------------------------------------| 
D |-----------------------------------------------------| 
A |-----------------------5-5-------5-5--0----------0*--| 
E |-5-5-432-2--5-5-432-2-------0-0------5-------4-5-----| 

  Vejo uma luz, uma estrela bilhar, sinto um cheiro de  
perfume no ar, Vejo minha Fada e sua vara de condão,  
tocando meu coração.  
G |-----------------------------------------------| 
D |-------2-2----------------------2-2------------| 
A |-5-5-4-------------------5-5-4------5-5----0---| 
E |------------5-5-432-2-2-------------------4----| 

  Madrugada de amor que não vai acabar, Se estou sonhando,  
não quero mais acordar, Minha história linda, meu conto 
de amor..... 
G |--------------------------------------------| 
D |-----------------------------2-2------------| 
A |-----------------------5-5-4----------------| 
E |-5-5-432-2--5-5-432-2------------5-5--0-0---| 

  Algo aqui me diz que essa paixão não é em vão, o meu  
sentimento é bem mais que uma emoção, eu espero o tempo  
que for, minha fada do amor 
G |-------------------------------------------| 
D |----------------------------2-2------------| 
A |-----------------------5-5-------5-5----0--| 
E |-5-5-432-2--5-5-432-2-----------------4----| 

Madrugada de amor que não vai acabar, Se estou sonhando,  
não quero mais acordar, Minha história linda, meu conto 
de amor..... 
G |--------------------------------------------| 
D |-----------------------------2-2------------| 
A |-----------------------5-5-4----------------| 
E |-5-5-432-2--5-5-432-2------------5-5--0-0---| 

  Algo aqui me diz que essa paixão não é em vão, o meu  
sentimento é bem mais que uma emoção, eu espero o tempo 
que for, minha fada do amor 
G |-------------------------------------------| 
D |----------------------------2-2------------| 
A |-----------------------5-5-------5-5----0--| 
E |-5-5-432-2--5-5-432-2-----------------4----| 

  Eu espero o tempo que for, minha fada do amor...... 
G |--------------------------| 
D |--------2-2---------------| 
A |---5-5-------5-5----0*----|   FIM 
E |-2----------------4-------| 
  

top cifras victor e léo
top cifras sertanejo
ver mais cifras desse artista var letras desse artista
Top cifras » Top artistas »
Anuncie no Cifras Termos de Uso Política de Privacidade Material de DivulgaçãoFale Conosco
Petaxxon Comunicação Online
Cifras.com.br - Melhor e mais completo site de cifras e tablaturas do Brasil
Mais de 1 milhão de cifras cadastradas desde 2003
As informações contidas no Cifras.com.br são colaborações de seus usuários e podem conter erros, sendo assim, não se responsabiliza sobre nenhuma destas.
R7 Música
close
 
redimensionar