» Cifras.com.br » Letras de músicas » Notícias » TV Cifras » Guitar Pro » Gospel

Início » Rock'n Roll » 3 Doors Down » »

By my side(solo)

3 Doors Down

By my side(solo)

3 Doors Down Escute esta e outras músicas enquanto navega no Cifras

Autor:

Tom

Formatação

colunas A+ A- cores

Instrumento

cifras tablaturaver outros instrumentos

Nível

Iniciante

Nível: Iniciante

Transcrição

enviada por Corral Urias


  Por ramon_ed_7@hotmail.com 
efectos. 
v:vibracion 
b:bend 
h:hammer on 
/:slider 
 
SOLO 
1.--------------------15v-15-15b------------ 
2.------------------------------------------ 
3.-6-3----7-10-7-10-7----------------------- 
4.-----5v----------------------------------- 
5.-------------------------------5-8-3-3-5-5 
6.------------------------------------------ 
 
1.---------------------------------- 
2.---------------------------------- 
3.---------------------------------- 
4.----------------8-8-8h10-8-------- 
5.-5-5h8-5-3-5/10------------10-8-10 
6.---------------------------------- 
 
1.------------------------------------ 
2.------------------------------------ 
3.-17-19-12-12-12-12-17-19/12-12-12-12 
4.------------------------------------ 
5.------------------------------------ 
6.------------------------------------ 
 
1.-------------------------------------------- 
2.-------------------------------------------- 
3.-12-10----12-10----12-10----12-10---12-10--- 
4.-------12-------12-------12-------12------12 
5.-------------------------------------------- 
6.-------------------------------------------- 
 

  

top cifras 3 doors down
top cifras rock'n roll
ver mais cifras desse artista var letras desse artista
Top cifras » Top artistas »
Anuncie no Cifras Termos de Uso Política de Privacidade Material de DivulgaçãoFale Conosco
Petaxxon Comunicação Online
Cifras.com.br - Melhor e mais completo site de cifras e tablaturas do Brasil
Mais de 1 milhão de cifras cadastradas desde 2003
As informações contidas no Cifras.com.br são colaborações de seus usuários e podem conter erros, sendo assim, não se responsabiliza sobre nenhuma destas.
R7 Música
close
 
redimensionar