» Cifras.com.br » Letras de músicas » Notícias » TV Cifras » Guitar Pro » Gospel

Início » Rock'n Roll » 3 Doors Down » 3 Doors Down »

Let Me Be Myself

3 Doors Down

Let Me Be Myself

3 Doors Down Escute esta e outras músicas enquanto navega no Cifras

Ano: 2008 - Album: 3 Doors Down

Autor:

Formatação

colunas A+ A- cores

Nível

Intermediário

Nível: Intermediário

Transcrição

enviada por robe_medeiros


  e|---------------------------------------------------------------------------| 
B|--0h1---0h1------0h1---0h1----------0h1---0h1----------0h1---0h1----3------| 
G|------0-----0--------2-----2------------0-----0------------0-----0---------| 
D|-------------2---------------2------------------2h3h2----------------------| 
A|--3-----3--------0-----0-------5h3-----------------------------------------| 
E|------------------------------------1-----1------------3-----3-------------| 


e|---------------------------------------------------------------------------| 
B|--0h1---0h1------0h1---0h1----------0h1---0h1----------0h1---0h1----3------| 
G|------0-----0--------2-----2------------0-----0------------0-----0---------| 
D|-------------2---------------2------------------2h3h2----------------------| 
A|--3-----3--------0-----0-------5h3-----------------------------------------| 
E|------------------------------------1-----1------------3-----3-------------| 
  

Top cifras » Top artistas »
Anuncie no Cifras Termos de Uso Política de Privacidade Material de DivulgaçãoFale Conosco
Petaxxon Comunicação Online
Cifras.com.br - Melhor e mais completo site de cifras e tablaturas do Brasil
Mais de 1 milhão de cifras cadastradas desde 2003
As informações contidas no Cifras.com.br são colaborações de seus usuários e podem conter erros, sendo assim, não se responsabiliza sobre nenhuma destas.
R7 Música
close
 
redimensionar