» Cifras.com.br » Letras de músicas » Notícias » TV Cifras » Guitar Pro » Gospel
Aline Barros

Diante Da Cruz

Aline Barros Escute esta e outras músicas enquanto navega no Cifras

Ano: 2007 - Album: Caminho de Milagres: ao Vivo

Autor:

Formatação

colunas A+ A- cores

Nível

Iniciante

Nível: Iniciante

Transcrição

enviada por iScuby


  ----INTRODUÇÃO----  
na verdade é o teclado q faz essa parte! mas para quem quer tocar no violão/guitarra ta ai!!
Só não ficou igualzinho!!! o importante é LOUVAR!!!!!!! Paz para todos! 

      D                    Bm7 
e ----2--2/5--3-3--2-2-0---2--2/5--3-3--2-2-0------ 
B ----3--------------------3----------------------- 
G ----2--------------------2----------------------- 
D ----0--------------------4----------------------- 
A -------------------------2----------------------- 
E ------------------------------------------------- 

      G                    A 
e ----3--2/5--3-3--2-2-0---0----------------------- 
B ----0--------------------2----------------------- 
G ----0--------------------2----------------------- Tudo Isso 2 vezes 
D ----0--------------------2-----------------------  
A ----2--------------------0----------------------- 
E ----3-------------------------------------------- 
  

top cifras aline barros
top cifras gospel
ver mais cifras desse artista var letras desse artista
Top cifras » Top artistas »
Anuncie no Cifras Termos de Uso Política de Privacidade Material de DivulgaçãoFale Conosco
Petaxxon Comunicação Online
Cifras.com.br - Melhor e mais completo site de cifras e tablaturas do Brasil
Mais de 1 milhão de cifras cadastradas desde 2003
As informações contidas no Cifras.com.br são colaborações de seus usuários e podem conter erros, sendo assim, não se responsabiliza sobre nenhuma destas.
R7 Música
close
 
redimensionar