» Cifras.com.br » Letras de músicas » Notícias » TV Cifras » Guitar Pro » Gospel

Início » Pop Music » Ana Carolina » Ana Carolina »

Alguém Me Disse

Ana Carolina

Alguém Me Disse

Ana Carolina Escute esta e outras músicas enquanto navega no Cifras

Ano: 1999 - Album: Ana Carolina

Autor: (Flavio Venturini / Ronaldo Bastos)

Tom

Formatação

colunas A+ A- cores

Instrumento

cifras tablaturaver outros instrumentos

Nível

Iniciante

Nível: Iniciante

Transcrição

anônimo


  E| ------------------------------------------------------------
B| ------------------------------------------------------------
G| ----3--5--3p1h3p1p0h1p0-0-0~~-------------------------------
D| -----------------------3--------------3-1-0-----------------
A| -----------------------------------------3-2-1--------------
E| --3-----------------------------------------4-3-1----3-3----

E| --------------------------------------------------------------------
B| --------------------------------------------------------------------
G| --5--7h8p7h8---5-3------------5--7h8p7h8---5-3----------------------
D| -5-----------------5p4p3-5---5-----------------5p4p3-5~-------------
A| --------------------------------------------------------6--5--3-----
E| 3---------------------------3---------------------------------------


E| -------------------------
B| -------------------------
G| -------------------------
D| --6-5--------------------
A| --6-5--------------------
E| --4-3--------------------


  (C5 F5)

          C5
Alguém me disse
       F5         C5  F5 
Que tu andas novamente
         C5           Bb5  
De novo amor, nova paixão
         Eb5 + Fr1   (Fr1)    -> E|---6-6-6-6-6------------------------
Todo contente                    B|----6-6-6-6-6-----------------------
                                 G|-----8-8-8-8-8----------------------  
                                 D|------------------------------------
 

        F5          Bb5 
Conheço bem tuas promessas
          Eb5        Ab5 
Outras ouvi Iguais a essas
          A5
Esse teu jeito de enganar
        G5   Ab5 G5  
Conheço bem


            C5
Pouco me importa
       F5            C5   F5
Que tu beijes tantas vezes
         C5          Bb5   
E que tu mudes de paixão
          Eb5 + Fr1
Todos os meses

           Ab5 
Se vais beijar
            G5
Como eu bem sei
         C5
Fazer sonhar 
             Bb5
Como eu sonhei
      A5               G5
Mas sem ter nunca amor igual
             Ab5 F5 
Ao que eu te dei 
              C5 F5
Ao que eu te dei



BANDONEON (Adaptação p/ Violão ou Guitarra) - 3X


E|---------------------------------------------------------------------------
B|-13-15h16p15h16-13-11-------------13-15h16p15h16-13-11---------------------
G|12--------------------12p11p10---12--------------------12p11p10-12---------
D|------------------------------13-----------------------------------13-12-10
A|---------------------------------------------------------------------------
E|---------------------------------------------------------------------------
  

Top cifras » Top artistas »
Anuncie no Cifras Termos de Uso Política de Privacidade Material de DivulgaçãoFale Conosco
Petaxxon Comunicação Online
Cifras.com.br - Melhor e mais completo site de cifras e tablaturas do Brasil
Mais de 1 milhão de cifras cadastradas desde 2003
As informações contidas no Cifras.com.br são colaborações de seus usuários e podem conter erros, sendo assim, não se responsabiliza sobre nenhuma destas.
R7 Música
close
 
redimensionar