» Cifras.com.br » Letras de músicas » Notícias » TV Cifras » Guitar Pro » Gospel
Logo Cifras.com.br

Início » Gospel » André Valadão »

Milagres

André Valadão

André Valadão
Milagres

Escute esta músicas

Tom

Formatação

colunas A+ A- cores

Nível

Avançado

Nível: Avançado

Transcrição

enviada por iva...


  Intro: 
e|--------------------------------------------|  
B|--------------------------------------------|  
G|-2/5-4-5-5---2/5-4-5-5/7--2-4-5-4-5---------|  
D|-------------------------------------5--5/7-|  
A|--------------------------------------------|  
E|--------------------------------------------| 
 
e|---------------------------------------|  
B|--------------5/6-5--------------------|  
G|-2/5-4-5-5----------7-5-7-7/9-7-5-5/7--|  
D|------------7--------------------------|  
A|---------------------------------------|  
E|---------------------------------------| 
 
e|-------------------------------------|  
B|-------------------------------------|  
G|-------------------------7-9-10-10/12|  
D|------------------7-9-10-------------|  
A|----------7-8-10---------------------|  
E|-5/7-8-10----------------------------| 
 
e|--------------------------------------|  
B|-------10/13-10-----------------------|  
G|-10-9---------------------------------|  
D|--------------------------------------|  
A|--------------------------------------|  
E|--------------------------------------| 
 
 
Solo em 02:34  
e|---------------------------------------|  
B|---------------------------------------|  
G|---------------------------------------|  
D|-3-5-7-7--5-7-9-9-10-10--10-9-7-9-10-10|  
A|---------------------------------------|  
E|---------------------------------------| 
 
e|--------------------------------------|  
B|--------------------------------------|  
G|------------------------------7b9-----|  
D|-10-9-10-10/12-12---3-5-7-7-----------|  
A|--------------------------------------|  
E|--------------------------------------| 
 
e|-5------------------------------------|  
B|---8-5--------------------------------|  
G|-------7-5-5/7-5----5/7-5-------------|  
D|-----------------7--------7--5/7------|  
A|--------------------------------------|  
E|--------------------------------------| 
 
e|-------------------------------------|  
B|-------------------------------------|  
G|-------------------------------------|  
D|--5-5-5/7----7/5---------------------|  
A|------------------7--3-3/5-----------|  
E|-------------------------------------| 
 
 

  

top cifras andré valadão
top cifras gospel
ver mais cifras desse artista

letras do(a) André Valadão

Top cifras » Top artistas »
Anuncie no Cifras Termos de Uso Política de Privacidade Material de DivulgaçãoFale Conosco
Petaxxon Comunicação Online
Cifras.com.br - Melhor e mais completo site de cifras e tablaturas do Brasil
Mais de 1 milhão de cifras cadastradas desde 2003
As informações contidas no Cifras.com.br são colaborações de seus usuários e podem conter erros, sendo assim, não se responsabiliza sobre nenhuma destas.
R7 Música
close
 
redimensionar