» Cifras.com.br » Letras de músicas » Notícias » TV Cifras » Guitar Pro » Gospel
Logo Cifras.com.br

Tom

Formatação

colunas A+ A- cores

Instrumento

cifras tablaturaver outros instrumentos

Nível

Expert

Nível: Expert

Transcrição

enviada por robepoiel


  E|-----------------------------------------------------------------------| 
B|--------------10-11~-10-10h11p10p9h10~-------10-11~-10b11r10-8~--------| 
G|------------10------------------------------9--------------------------| 
D|---/12~--/12-----------------------------/11---------------------------| 
A|-----------------------------------------------------------------------| 
D|-----------------------------------------------------------------------| 

E|----------------------------------------------------------------------------| 
B|--8-10-8-7-5-3-5-7-8-3~----/15-15-14-/17~-15~---/15-15-14-/17-15-------14---| 
G|-----------------------------------------------------------------14-16------| 
D|----------------------------------------------------------------------------| 
A|----------------------------------------------------------------------------| 
D|----------------------------------------------------------------------------| 

E|---/17-17-16-16--------------------------17-19-17~~---------------------| 
B|------------------14/17\14-----13-17------------------------------------| 
G|------------------------------------------------------------------------| 
D|------------------------------------------------------------------------| 
A|------------------------------------------------------------------------| 
D|------------------------------------------------------------------------| 

E|--------------------------------------------------------------------------| 
B|--------------------------------------------------------------------------| 
G|--9--11---9---7--6--4--6--7--9--4-----------------------------------------| 
D|--x---x---x---x--x--x--x--x--x--x-----------------------------------------| 
A|--7---9---7---5--4--2--4--5--7--2-----------------------------------------| 
D|--------------------------------------------------------------------------| 

E|---/14~-14-12-/15-14--/13-13-12-/15-13-9-10-12~---------| 
B|--------------------------------------------------------| 
G|--------------------------------------------------------| 
D|--------------------------------------------------------| 
A|--------------------------------------------------------| 
D|--------------------------------------------------------| 

E|-------------------/17-17-16-16-------------------------------------| 
B|---------------------------------14/17\14~-------10-13-13-15-13~~---| 
G|--------------------------------------------------------------------| 
D|--------------------------------------------------------------------| 
A|--------------------------------------------------------------------| 
D|--------------------------------------------------------------------| 

E|-----------------------------------------------------------------| 
B|-----------------------------------------------------------------| 
G|-----------------------------------------------------------------| 
D|---0-------------7-----------2-------------9---------------------| 
A|---0-------------7-----------2-------------9---------------------| 
D|---0-------------7-----------2-------------9---------------------| 

E|----------------------------------------------------------------| 
B|----7------------6---------------2-----------1------------------| 
G|----7------------7---------------2-----------2------------------| 
D|----7------------7---------------2-----------2------------------| 
A|----5------------5---------------0-----------0------------------| 
D|----------------------------------------------------------------| 

E|----------------------------------------------------------------------| 
B|----------palm-mute-all-----------------------------------------------| 
G|----------------------------------------------------------------------| 
D|----------------------------------------------------------------------| 
A|----0----------------0--------------0--------------------repeat-------| 
D|----0---0-0-0-0------0---0-0-0-0----0---0-0-0-0-0-0-0-0---------------| 

E|---------------------------------------------------------------------| 
B|---------------------------------------------------------------------| 
G|---------------------------------------------------------------------| 
D|---7-0-7-8----5-0-5-7---------------------5--------------------------| 
A|------------------------------8-5----4-7------------repeat-----------| 
D|-----------------------------------7---------------------------------| 

E|-------------------------------------------------------------------| 
B|-------------------------------------------------------------------| 
G|-------------------------------------------------------------------| 
D|---7-0-7-8~--5-0-5-7~----------------------5-----------------------| 
A|-------------------------------8-5----4-7--------------------------| 
D|------------------------------------7------------------------------| 

E|-----------------------------------------------------------------------| 
B|-----------------------------------------------------------------------| 
G|-------------------------------------------------------6-----7-----9~--| 
D|---7-0-7-8~--5-0-5-7~-----------------------5--------------------------| 
A|-------------------------------8-5-----4-7-----------------------------| 
D|------------------------------------7----------------------------------| 

E|------------------------------------------------------------------| 
B|------------------------------------------------------------------| 
G|------------------------------------------------------------------| 
D|---15-0-15-17~--14-0-14-15~-----7---------5--8--------------------| 
A|-----------------------------------8--4--7------------------------| 
D|------------------------------------------------------------------| 

E|-------------------------------------------------5---6----9~------| 
B|------------------------------------------------------------------| 
G|------------------------------------------------------------------| 
D|---15-0-15-17~--14-0-14-15~----7-----------5--8-------------------| 
A|----------------------------------8--4--7-------------------------| 
D|------------------------------------------------------------------| 

E|------------------------------------------------------------------| 
B|------------------------------------------------------------------| 
G|------------------------------------------------------------------| 
D|---0--------------0--------------6--------------11----------------| 
A|---0--------------0--------------7--------------12----------------| 
D|---0---0-0-0-0----0---0-0-0-0----6---6-6-6-6----11---11-11-11-11--| 

E|---------------------------------------------------------------| 
B|---------------------------------------------------------------| 
G|---------------------------------------------------------------| 
D|--------------7~-----8-7-6~------6-----------------------------| 
A|----5~----5-8------5-----------7---8-7~----4-8-7---------------| 
D|--------7------------------------------------------------------| 

E|---------------------------------------------------------------| 
B|---------------------------------------------------------------| 
G|---------------------------------7---6--7---9h10p9h10p9h10-----| 
D|-----------7~-----8-7-6~------7--------------------------------| 
A|--5~--5-8-------5----------------------------------------------| 
D|----7----------------------------------------------------------| 

E|---------------------------------------------------------------| 
B|---------------------------------------------------------------| 
G|---------------------------------------------------------------| 
D|--------------7~-----8-7-6~------6-----------------------------| 
A|----5~----5-8------5----------7-----8-7~----4-8-7--------------| 
D|--------7------------------------------------------------------| 

E|---------------------------------------------------------------| 
B|---------------------------------------------------------------| 
G|-------------------------------------7----9h10p9h10---12~------| 
D|--------------7~-------8-7-6~------7---------------------------| 
A|---5~-----5-8--------5-----------------------------------------| 
D|--------7------------------------------------------------------| 

E|------------------------------------------------------------------| 
B|------------------------8-6-5~------------------------------------| 
G|--------------7~--------------------5-----------------------------| 
D|------------7--------7------------7---7-5~-----7-5----------------| 
A|---8~---5-8----------------------------------------7--------------| 
D|------------------------------------------------------------------| 

E|-----------------------------------------5--6----9h10p9h10p9h10---| 
B|----------------------8-6-5~-------6--8---------------------------| 
G|--------------7~--------------------------------------------------| 
D|------------7-------7---------------------------------------------| 
A|---8~---5-8-------------------------------------------------------| 
D|------------------------------------------------------------------| 

E|-------------------------------------------------------------------| 
B|------------------------8-6-5~-------------------------------------| 
G|--------------7~--------------------5------------------------------| 
D|------------7--------7------------7---7-5~-----7-5-----------------| 
A|---8~---5-8----------------------------------------7---------------| 
D|-------------------------------------------------------------------| 

E|------------------------------------------9h10p9h10---12~-----------| 
B|----------------------8-6-5~------6--8------------------------------| 
G|--------------7~----------------------------------------------------| 
D|------------7-------7-----------------------------------------------| 
A|---8~---5-8---------------------------------------------------------| 
D|--------------------------------------------------------------------| 

E|-----------------------------------------------------------------| 
B|-----------------------------------------------------------------| 
G|-----------------------------------------------------------------| 
D|---0------3-----5----2------------12----8----7-5-----6-7---------| 
A|---0------3-----5----4------------12----8----7-5-----6-7---------| 
D|---0------3-----5----2------------12----8----7-5-----6-7---------| 

E|---------------------------------------------------------| 
B|----bunch-of-natural-harmonics-and-whammy-bar------------| 
G|---------------------------------------------------------| 
D|---------------------------------------------------------| 
A|---------------------------------------------------------| 
D|---------------------------------------------------------| 

E|--------------------------------------------------9-10-9~------| 
B|------------------------------------10---11-10-----------------| 
G|-------7~----9--10-9-7-5-7~----7-10------------12--------------| 
D|-----------------------------7---------12----------------------| 
A|---------------------------------------------------------------| 
D|---------------------------------------------------------------| 

E|-----------13-15-17--13--15--13--12-13-15-18-17--21--22~~------| 
B|--13-15-17-----------------------------------------------------| 
G|---------------------------------------------------------------| 
D|---------------------------------------------------------------| 
A|---------------------------------------------------------------| 
D|---------------------------------------------------------------| 

E|---------------------------------------------------------------------| 
B|---------------------------------------------------four-times--------| 
G|---------------------------------------------------------------------| 
D|-----0------5-----7----8---------------------------------------------| 
A|-----0------3-----3----5---------------------------------------------| 
D|-----0------2-----3----5---------------------------------------------| 

E|---------------------------------------------------------------| 
B|---------------------------------------------------------------| 
G|---------------------------------------------5-7~--------------| 
D|---------7-8-7-5~--7-8-7-5~--7-8-7-5-8-5-7-8-------------------| 
A|---------------------------------------------------------------| 
D|--------------------------------------three-times--------------| 

E|------------------------------------------------------------| 
B|------------------------------------------------------------| 
G|------------------------------------------------------------| 
D|---------7-8-7-5~--7-8-7-5~--7-8-7-5-8-5-7-5-7-5~-----------| 
A|------------------------------------------------------------| 
D|------------------------------------------------------------| 

E|----------------------------------------------------------------| 
B|----------------------------------------------------------------| 
G|------------------------------------------------------8-12~-----| 
D|------10-12-10-8~--10-12-10-8~--10-12-10-8-12-8-10-12-----------| 
A|----------------------------------------------------------------| 
D|--------------------------------------three-times---------------| 

E|-------------------------------------------------------------| 
B|-------------------------------------------------------------| 
G|-------------------------------------------------------------| 
D|------10-12-10-8~--10-12-10-8~--10-12-10-8-12-8-10-8-10-8~---| 
A|-------------------------------------------------------------| 
D|-------------------------------------------------------------| 

E|---------------------------------------------------------------------| 
B|----------palm-mute-all----------------------------------------------| 
G|---------------------------------------------------------------------| 
D|---------------------------------------------------------------------| 
A|----0----------------0--------------0--------------------repeat------| 
D|----0---0-0-0-0------0---0-0-0-0----0---0-0-0-0-0-0-0-0--------------| 

E|-----------------------------------------------------------------| 
B|-----------------------------------------------------------------| 
G|-----------------------------------------------------------------| 
D|-----7---------8---------7-------7---------8------7--------------| 
A|-----5---------5---------5-------7---------7------7--------------| 
D|---------------------------------7---------7------7--------------| 

E|-----------------------------------------------------------------| 
B|-----------------------------------------------------------------| 
G|-----------------------------------------------------------------| 
D|-----2---------------2-----------4-------------4-----------------| 
A|-----2---------------2-----------2-------------2-----------------| 
D|-----2---------------2-------------------------------------------| 

E|----------------------------------------------------------------| 
B|----7----------------6-------------2----------1-----------------| 
G|----7----------------7-------------2----------2-----------------| 
D|----7----------------7-------------2----------2-----------------| 
A|----5----------------5-------------0----------0-----------------| 
D|----------------------------------------------------------------| 

E|------------------------------------------------two-times------------| 
B|---------------------------------------------------------------------| 
G|---------------------------------------------------------------------| 
D|---0--------------0----------6----------------11---------------------| 
A|---0--------------0----------7----------------12---------------------| 
D|---0--0-0-0-0-----0-0-0-0----6----6-6-6-6-----11---11-11-11-11-------| 

E|-----------------------------------------------------------------| 
B|-----------------------------------------------------------------| 
G|-----------------------------------------------------------------| 
D|-----------------------------------------------------------------| 
A|-----------------------------------------------------------------| 
D|--0-0-12-0-11-0-8-0-11-0-8~---------0-0-8-0-7-0-6-0-7-0-7--------| 

E|----------------------------------------------------------------------| 
B|----------------------------------------------------------------------| 
G|----------------------------------------------------------------------| 
D|-----------------------------------8-8-8---7-7-7----------------------| 
A|-----------------------------------8-8-8---7-7-7----------------------| 
D|--0-0-12-0-11-0-8-0-11-0-8~--------8-8-8---7-7-7----------------------| 

E|-------------------------------------------------------------| 
B|-------------------------------------------------------------| 
G|-------------------------------------------------------------| 
D|-------------3----------------------------------7------------| 
A|-------------3----------------------------------7------------| 
D|-------------3----------------------------------7------------| 

E|-------------------------------------------------------------| 
B|-------------------------------------------------------------| 
G|-------------------------------------------------------------| 
D|------------7-----------------------------------5------------| 
A|------------5-----------------------------------3------------| 
D|-------------------------------------------------------------| 

E|-------------------------------------------------------------| 
B|-------------------------------------------------------------| 
G|-------------------------------------------------------------| 
D|-------------3----------------------------------7------------| 
A|-------------3----------------------------------7------------| 
D|-------------3----------------------------------7------------| 

E|-------------------------------------------------------------| 
B|-------------------------------------------------------------| 
G|-------------------------------------------------------------| 
D|------------7-----------------------------------5------------| 
A|------------5-----------------------------------3------------| 
D|-------------------------------------------------------------| 

E|--/13---15-13-15-17-----/8-9-12---/18-17-15-17----------------| 
B|--------------------------------------------------------------| 
G|--------------------------------------------------------------| 
D|--------------------------------------------------------------| 
A|--------------------------------------------------------------| 
D|--------------------------------------------------------------| 

E|--13-17-15-17-13-17-12-17-12-17-13-17-----8-10-8-10-12-13-15-15-17-18-----| 
B|--------this-part-twice---------------------------------------------------| 
G|--------------------------------------------------------------------------| 
D|--------------------------------------------------------------------------| 
A|--------------------------------------------------------------------------| 
D|--------------------------------------------------------------------------| 

E|--/13---15-13-15-17--------/8-9-12---18-17-15-17---------------| 
B|---------------------------------------------------------------| 
G|---------------------------------------------------------------| 
D|---------------------------------------------------------------| 
A|---------------------------------------------------------------| 
D|---------------------------------------------------------------| 

E|---13-17-15-17-13-17-12-17-12-17-13-17---------------------------| 
B|-----------------------------------------------------------------| 
G|-----------------------------------------------------twice-------| 
D|-----------------------------------------------------------------| 
A|-----------------------------------------------------------------| 
D|-----------------------------------------------------------------| 

E|----12-15-13-15-12-15-10-15-10-15-12-15---------------------------| 
B|------------------------------------------------------------------| 
G|------------------------------------------------------------------| 
D|-------------------------------------------------------twice------| 
A|------------------------------------------------------------------| 
D|------------------------------------------------------------------| 

E|--/17---18-17-18-20----/12-12-15---22-21-19-21-------------| 
B|-----------------------------------------------------------| 
G|-----------------------------------------------------------| 
D|-----------------------------------------------------------| 
A|-----------------------------------------------------------| 
D|-----------------------------------------------------------| 

E|-----------------------------------------12-13-12-13-15-17-18-18-20-22------| 
B|--15-18-17-18-15-18-13-18-13-18-15-18---------------------------------------| 
G|-------this-part-twice------------------------------------------------------| 
D|----------------------------------------------------------------------------| 
A|----------------------------------------------------------------------------| 
D|----------------------------------------------------------------------------| 

E|--/17---18-17-18-20----/12-12-15---/22-21-19-21--------------| 
B|-------------------------------------------------------------| 
G|-------------------------------------------------------------| 
D|-------------------------------------------------------------| 
A|-------------------------------------------------------------| 
D|-------------------------------------------------------------| 

E|--------------------------------------------------------------| 
B|----15-18-17-18-15-18-13-18-13-18-15-18-----------------------| 
G|--------------------------------------------------------------| 
D|--------------------------------------------------twice-------| 
A|--------------------------------------------------------------| 
D|--------------------------------------------------------------| 

E|--------------------------------------------------------------| 
B|----13-17-15-17-13-17-12-17-12-17-13-17-----------------------| 
G|--------------------------------------------------------------| 
D|--------------------------------------------------------------| 
A|---------------------------------------------------twice------| 
D|--------------------------------------------------------------| 

E|------------------------------------------------------------------------| 
B|---------------palm-mute-all--------------------------------------------| 
G|------------------------------------------------------------------------| 
D|------------------------------------------------------------------------| 
A|----0-0----0-0----0-0----0-0-0-0--0-0-0-0-------0-0-----0-0----0-0------| 
D|----0-0----0-0----0-0----0-0-0-0--0-0-0-0-------0-0-----0-0----0-0------| 

E|-----------------------------------------------------------------| 
B|-----------------------------------------------------------------| 
G|-----------------------------------------------------------------| 
D|-----7---------8---------7-------7---------8------7--------------| 
A|-----5---------5---------5-------7---------7------7--------------| 
D|---------------------------------7---------7------7--------------| 

E|-----------------------------------------------------------------| 
B|-----------------------------------------------------------------| 
G|-----------------------------------------------------------------| 
D|-----2---------------2-----------4-------------4-----------------| 
A|-----2---------------2-----------2-------------2-----------------| 
D|-----2---------------2-------------------------------------------| 

E|-----------------------------------------------------------------| 
B|----7----------------6-------------2----------1------------------| 
G|----7----------------7-------------2----------2------------------| 
D|----7----------------7-------------2----------2------------------| 
A|----5----------------5-------------0----------0------------------| 
D|-----------------------------------------------------------------| 

E|------------------------------------------------two-times------------| 
B|---------------------------------------------------------------------| 
G|---------------------------------------------------------------------| 
D|---0--------------0----------6----------------11---------------------| 
A|---0--------------0----------7----------------12---------------------| 
D|---0--0-0-0-0-----0-0-0-0----6----6-6-6-6-----11---11-11-11-11-------| 

E|-------------------------------------------------------------------| 
B|-------------------------------------------------------------------| 
G|-------------------------------------------------------------------| 
D|-------------------------------------------------------------------| 
A|-------------------------------------------------------------------| 
D|--0-0-12-0-11-0-8-0-11-0-8~---------0-0-8-0-7-0-6-0-7-0-7----------| 

E|----------------------------------------------------------------------| 
B|----------------------------------------------------------------------| 
G|----------------------------------------------------------------------| 
D|-----------------------------------8-8-8---7-7-7----------------------| 
A|-----------------------------------8-8-8---7-7-7----------------------| 
D|--0-0-12-0-11-0-8-0-11-0-8~--------8-8-8---7-7-7----------------------| 

E|-------------------------------------------------------------| 
B|-------------------------------------------------------------| 
G|-------------------------------------------------------------| 
D|-------------3----------------------------------7------------| 
A|-------------3----------------------------------7------------| 
D|-------------3----------------------------------7------------| 

E|-------------------------------------------------------------| 
B|-------------------------------------------------------------| 
G|-------------------------------------------------------------| 
D|------------7-----------------------------------5------------| 
A|------------5-----------------------------------3------------| 
D|-------------------------------------------------------------| 

E|-------------------------------------------------------------| 
B|-------------------------------------------------------------| 
G|-------------------------------------------------------------| 
D|-------------3----------------------------------7------------| 
A|-------------3----------------------------------7------------| 
D|-------------3----------------------------------7------------| 

E|-------------------------------------------------------------| 
B|-------------------------------------------------------------| 
G|-------------------------------------------------------------| 
D|------------7-----------------------------------5------------| 
A|------------5-----------------------------------3------------| 
D|-------------------------------------------------------------| 

E|--/13---15-13-15-17-----/8-9-12---/18-17-15-17----------------| 
B|--------------------------------------------------------------| 
G|--------------------------------------------------------------| 
D|--------------------------------------------------------------| 
A|--------------------------------------------------------------| 
D|--------------------------------------------------------------| 

E|--13-17-15-17-13-17-12-17-12-17-13-17-----8-10-8-10-12-13-15-15-17-18-----| 
B|--------this-part-twice---------------------------------------------------| 
G|--------------------------------------------------------------------------| 
D|--------------------------------------------------------------------------| 
A|--------------------------------------------------------------------------| 
D|--------------------------------------------------------------------------| 

E|--/13---15-13-15-17--------/8-9-12---18-17-15-17---------------| 
B|---------------------------------------------------------------| 
G|---------------------------------------------------------------| 
D|---------------------------------------------------------------| 
A|---------------------------------------------------------------| 
D|---------------------------------------------------------------| 

E|---13-17-15-17-13-17-12-17-12-17-13-17---------------------------| 
B|-----------------------------------------------------------------| 
G|-----------------------------------------------------twice-------| 
D|-----------------------------------------------------------------| 
A|-----------------------------------------------------------------| 
D|-----------------------------------------------------------------| 

E|----12-15-13-15-12-15-10-15-10-15-12-15---------------------------| 
B|------------------------------------------------------------------| 
G|------------------------------------------------------------------| 
D|-------------------------------------------------------twice------| 
A|------------------------------------------------------------------| 
D|------------------------------------------------------------------| 

E|--/17---18-17-18-20----/12-12-15---22-21-19-21-----------| 
B|---------------------------------------------------------| 
G|---------------------------------------------------------| 
D|---------------------------------------------------------| 
A|---------------------------------------------------------| 
D|---------------------------------------------------------| 

E|-----------------------------------------12-13-12-13-15-17-18-18-20-22------| 
B|--15-18-17-18-15-18-13-18-13-18-15-18---------------------------------------| 
G|-------this-part-twice------------------------------------------------------| 
D|----------------------------------------------------------------------------| 
A|----------------------------------------------------------------------------| 
D|----------------------------------------------------------------------------| 

E|--/17---18-17-18-20----/12-12-15---/22-21-19-21--------------| 
B|-------------------------------------------------------------| 
G|-------------------------------------------------------------| 
D|-------------------------------------------------------------| 
A|-------------------------------------------------------------| 
D|-------------------------------------------------------------| 

E|--------------------------------------------------------------| 
B|----15-18-17-18-15-18-13-18-13-18-15-18-----------------------| 
G|--------------------------------------------------------------| 
D|--------------------------------------------------twice-------| 
A|--------------------------------------------------------------| 
D|--------------------------------------------------------------| 

E|--------------------------------------------------------------| 
B|----13-17-15-17-13-17-12-17-12-17-13-17-----------------------| 
G|--------------------------------------------------------------| 
D|--------------------------------------------------------------| 
A|---------------------------------------------------twice------| 
D|--------------------------------------------------------------| 

E|------------------------------------------------------------------------| 
B|------------------------------------------------------------------------| 
G|------------------------------------------------------------------------| 
D|---3------------------------------0--------------\\\\\\\--pick----------| 
A|---1------------------------------0--------------\\\\\\\--slide---------| 
D|----------------------------------0--------------\\\\\\\----------------| 

E|------6--8--6--8--10--12--13--12--10----------------| 
B|----------------------------------------------------| 
G|----------------------------------------------------| 
D|----------------------------------------------------| 
A|----------------------------------------------------| 
D|----------------------------------------------------| 

E|-------10--12--10--12--13--15--17--15--13--------| 
B|-------------------------------------------------| 
G|-------------------------------------------------| 
D|-------------------------------------------------| 
A|-------------------------------------------------| 
D|-------------------------------------------------| 

E|-------------------------------------------------------------------| 
B|-------------------------------------------------------------------| 
G|-------------------------------------------------------------------| 
D|---0----------------0----------------0--------------0--------------| 
A|---0----------------0----------------0--------------0--------------| 
D|---0----0-0-0-0-----0-----0-0-0-0----0---0-0-0-0----0---0-0-0-0----| 

E|-------------------------------------------------------------------| 
B|-------------------------------------------------------------------| 
G|-------------------------------------------------------------------| 
D|---8----------------8----------------8---------------8-------------| 
A|---8----------------8----------------8---------------8-------------| 
D|---8----8-8-8-8-----8-----8-8-8-8----8---8-8-8-8-----8---8-8-8-8---| 

E|-------------------------------------------------------------------| 
B|------------------------------------------------twice--------------| 
G|-------------------------------------------------------------------| 
D|--------7-------5-------8-------7-------5-7------------------------| 
A|-------------------------------------------------------------------| 
D|---0-0-----0-0-----0-0-----0-0-----0-0-----------------------------| 

E|------------------------------------------------------------------| 
B|------------------------------------------------twice-------------| 
G|------------------------------------------------------------------| 
D|--------7------5-------8--------7-------5-7-----------------------| 
A|------------------------------------------------------------------| 
D|---8-8----8-8-----8-8------8-8-----8-8----------------------------| 

E|------------------------------------------------------------| 
B|------------------------------------------------------------| 
G|------------------------------------------------------------| 
D|----0---------------------------------------8---------------| 
A|----0---------------------------------------8---------------| 
D|----0---------------------------------------8---------------| 

E|---------------------------------------------------------------| 
B|------------------------------------------------twice----------| 
G|---------------------------------------------------------------| 
D|--------7-------5------8-------7-------5-7---------------------| 
A|---------------------------------------------------------------| 
D|---0-0----0-0-----0-0-----0-0-----0-0--------------------------| 

E|-------------------------------------------------------------------| 
B|------------------------------------------------twice--------------| 
G|-------------------------------------------------------------------| 
D|--------7------5-------8-------7-------5-7-------------------------| 
A|-------------------------------------------------------------------| 
D|---8-8----8-8-----8-8-----8-8-----8-8------------------------------| 

E|-------------------------------------------------------------------| 
B|--------------------------11-10-----10-----------------------------| 
G|-7--9-10-7--9-10-7--9-10----------12--------------------------------| 
D|-------------------------------------------------------------------| 
A|-------------------------------------------------------------------| 
D|-------------------------------------------------------------------| 

E|------------------------------------------------------------------| 
B|-----------10---------10----------10-13-13-10-13------------------| 
G|---- 10-12-----10-12-----10-12------------------------------------| 
D|------------------------------------------------------------------| 
A|------------------------------------------------------------------| 
D|------------------------------------------------------------------| 

E|--------------------------strum quickly---------------------------------| 
B|------------------------------------------------------------------------| 
G|------------------------------------------------------------------------| 
D|----0---------------------------------------8---------------------------| 
A|----0---------------------------------------8---------------------------| 
D|----0---------------------------------------8---------------------------| 

E|-10-12-13-10-12-13-10-12-13-15-13-12-13-----------------------| 
B|--------------------------------------------------------------| 
G|--------------------------------------------------------------| 
D|----------------------------------------tremolo-pick----------| 
A|--------------------------------------------------------------| 
D|--------------------------------------------------------------| 

E|-10-12-13-10-12-13-10-12-13---17~--------------------------------| 
B|-----------------------------------------------------------------| 
G|-----------------------------------------------------------------| 
D|----------------------------------------tremolo-pick-------------| 
A|-----------------------------------------------------------------| 
D|-----------------------------------------------------------------| 

E|-13-15-17-13-15-17-13-15-17-18-17-15-17----------------------| 
B|-------------------------------------------------------------| 
G|-------------------------------------------------------------| 
D|-----------------------------------------tremolo-pick--------| 
A|-------------------------------------------------------------| 
D|-------------------------------------------------------------| 

E|-13-15-17-13-15-17-13-15-17-20~---------------------------------| 
B|----------------------------------------------------------------| 
G|----------------------------------------------------------------| 
D|-----------------------------------------tremolo-pick-----------| 
A|----------------------------------------------------------------| 
D|----------------------------------------------------------------| 

E|-----------------------------------------------------------------------| 
B|-----------------------------------------------------------------------| 
G|-----------------------------------------------------------------------| 
D|---0----2----3----5----3----2------------12----8----7----5----3----2---| 
A|---0----2----3----5----3----2------------12----8----7----5----3----2---| 
D|---0----2----3----5----3----2------------12----8----7----5----3----2---| 

E|--------------------------------------------------------------------------| 
B|-------------------really-fast--------------------------------------------| 
G|--------------------------------------------------------------------------| 
D|-7-----------7-----------7----------7-----------7-----------7-------------| 
A|-5-5-5-5-5-5-5-5-5-5-5-5-5-5-5-5----4-4-4-4-4-4-4-4-4-4-4-4-4-4-4-4-------| 
D|-------------------------------------------------------------------|------| 

E|----------------------------------------------------------------------| 
B|----------------------------------------------------------------------| 
G|----------------------------------------------------------------------| 
D|-5-----------5-----------5----------5-----------5-----------5---------| 
A|-3-3-3-3-3-3-3-3-3-3-3-3-3-3-3-3----2-2-2-2-2-2-2-2-2-2-2-2-2-2-2-2---| 
D|----------------------------------------------------------------------| 

E|------------------------------------------------------------| 
B|------------------------------------------------------------| 
G|---------------------------------------2--------------------| 
D|-3-----------3-----------3-------------2--------3----2------| 
A|-1-1-1-1-1-1-1-1-1-1-1-1-1-1-1-1-------0--------3----2------| 
D|------------------------------------------------3----2------| 

E|-----------twice-----------------------------------------------------| 
B|--------------------------palm-mute----------------------------------| 
G|---------------------------------------------------------------------| 
D|--0-0---0-0---0-0----------------------0-0---0-0---0-0---------------| 
A|--0-0---0-0---0-0----------------------0-0---0-0---0-0---------------| 
D|--0-0---0-0---0-0----------------------0-0---0-0---0-0---------------| 

E|---------------------------------------------twice--------------------| 
B|------------------6-5---6-5---------------------6-5---6-5-------------| 
G|----------------------------------------------------------------------| 
D|----------------------7------7-6--------------------7------7-6--------| 
A|----------------------------------------------------------------------| 
D|----------------------------------------------------------------------| 

E|----------------------------------------------------------------------| 
B|-----------------------palm-mute--------------------------------------| 
G|----------------------------------------------------------------------| 
D|--------0-0---0-0---0-0---0-0---0-0----5-5---5-5---5-5---5-5---5-5----| 
A|--------0-0---0-0---0-0---0-0---0-0----5-5---5-5---5-5---5-5---5-5----| 
D|--------0-0---0-0---0-0---0-0---0-0----5-5---5-5---5-5---5-5---5-5----| 

E|------------------------palm-mute-----------------------------------------| 
B|--------------------------------------------------------------------------| 
G|--------------------------------------------------------------------------| 
D|----3-3---3-3---3-7---7-7---7-7------0-0---0-0---0-0----------------------| 
A|----5-5---5-5---5-7---7-7---7-7------0-0---0-0---0-0----------------------| 
D|----3-3---3-3---3-7---7-7---7-7------0-0---0-0---0-0----5b6r5-0-6-7-0-3~--| 

E|-----------------------------------------------------------------------| 
B|-----------------------palm-mute---------------------------------------| 
G|-----------------------------------------------------------------------| 
D|--------0-0---0-0---0-0---0-0---0-0----5-5---5-5---5-5---5-5---5-5-----| 
A|--------0-0---0-0---0-0---0-0---0-0----5-5---5-5---5-5---5-5---5-5-----| 
D|--------0-0---0-0---0-0---0-0---0-0----5-5---5-5---5-5---5-5---5-5-----| 

E|------------------------palm-mute---------------------------------------| 
B|------------------------------------------------------------------------| 
G|------------------------------------------------------------------------| 
D|------3-3---3-3---3-7---7-7---7-7--------0---7---8---5---7-5-3----0-----| 
A|------5-5---5-5---5-7---7-7---7-7--------0---7---8---5---7-5-3----0-----| 
D|------3-3---3-3---3-7---7-7---7-7--------0---7---8---5---7-5-3----0-----| 

E|----------------------------10-10-10-12b13r12-10------------------------| 
B|-------------------10-10-10---------------------------------------------| 
G|----------10-10-10------------------------------------------------------| 
D|-12-12-12---------------------------------------------------------------| 
A|------------------------------------------------------------------------| 
D|------------------------------------------------------------------------| 

E|----------------------------15-15-15-17b18r17-15----------------------| 
B|-------------------15-15-15-------------------------------------------| 
G|----------15-15-15----------------------------------------------------| 
D|-17-17-17-------------------------------------------------------------| 
A|----------------------------------------------------------------------| 
D|----------------------------------------------------------------------| 

E|-13-13-13----------13-13-13-12-12-12--------------------------------| 
B|----------15-15-15-------------------14-14-14-10-10-10--------------| 
G|--------------------------------------------------------------------| 
D|--------------------------------------------------------------------| 
A|--------------------------------------------------------------------| 
D|--------------------------------------------------------------------| 

E|-10-10-10------------------------------------------------------------| 
B|----------10-10-10---------------------------------------------------| 
G|-------------------10-10-10-12b13r12-10-12---------------------------| 
D|-------------------------------------------12-10---------------------| 
A|---------------------------------------------------------------------| 
D|---------------------------------------------------------------------| 

E|----------------------------10-10-10-12b13r12-10---------------------| 
B|-------------------10-10-10------------------------------------------| 
G|----------10-10-10---------------------------------------------------| 
D|-12-12-12------------------------------------------------------------| 
A|---------------------------------------------------------------------| 
D|---------------------------------------------------------------------| 

E|----------------------------15-15-15-17b18r17-15---------------------| 
B|-------------------15-15-15------------------------------------------| 
G|----------15-15-15---------------------------------------------------| 
D|-17-17-17------------------------------------------------------------| 
A|---------------------------------------------------------------------| 
D|---------------------------------------------------------------------| 

E|-13-13-13--------------------------------9-12-10-9------------------| 
B|---------15-15-15-10-10-10-------------10---------------------------| 
G|---------------------------10-10-10---9-----------------------------| 
D|--------------------------------------------------------------------| 
A|--------------------------------------------------------------------| 
D|--------------------------------------------------------------------| 

E|---10-------------------------------------------------------------| 
B|-----10-11------10------------------------------------------------| 
G|------------12------12-10-9---------------------------------------| 
D|-----------------------------12~----------------------------------| 
A|------------------------------------------------------------------| 
D|------------------------------------------------------------------| 

E|-----------------------------10-10-10-12b13r12-10----------------| 
B|--------------------10-10-10-------------------------------------| 
G|----------10-10-10-----------------------------------------------| 
D|-12-12-12--------------------------------------------------------| 
A|-----------------------------------------------------------------| 
D|-----------------------------------------------------------------| 

E|----------------------------15-15-15-17b18r17-15-------------------| 
B|-------------------15-15-15----------------------------------------| 
G|----------15-15-15-------------------------------------------------| 
D|-17-17-17----------------------------------------------------------| 
A|-------------------------------------------------------------------| 
D|-------------------------------------------------------------------| 

E|-13-13-13----------13-13-13-12-12-12----------12-12-12--------------| 
B|----------15-15-15-------------------14-14-14-----------------------| 
G|--------------------------------------------------------------------| 
D|--------------------------------------------------------------------| 
A|--------------------------------------------------------------------| 
D|--------------------------------------------------------------------| 

E|-10-10-10-----------------------------------------------------------| 
B|----------10-10-10--------------------------------------------------| 
G|-------------------10-10-10-12b13r12-10-12--------------------------| 
D|-------------------------------------------12-10--------------------| 
A|--------------------------------------------------------------------| 
D|--------------------------------------------------------------------| 

E|-------------------10-10-10-13-13-13-15b17r15-13---------------------| 
B|----------10-10-10---------------------------------------------------| 
G|-10-10-10------------------------------------------------------------| 
D|---------------------------------------------------------------------| 
A|---------------------------------------------------------------------| 
D|---------------------------------------------------------------------| 

E|-------------------15-15-15-18-18-18-20b22r20-18--------------------| 
B|----------15-15-15--------------------------------------------------| 
G|-15-15-15-----------------------------------------------------------| 
D|--------------------------------------------------------------------| 
A|--------------------------------------------------------------------| 
D|--------------------------------------------------------------------| 

E|-17-17-17-13-13-13-10-10-10-----------------12-15-13-12------------| 
B|----------------------------10-10-10------14-----------------------| 
G|----------------------------------------14-------------------------| 
D|-------------------------------------------------------------------| 
A|-------------------------------------------------------------------| 
D|-------------------------------------------------------------------| 

E|--13---------9----------------------------------------------------| 
B|----------------11-10-12-10~--------------------------------------| 
G|----10-12-9-------------------------------------------------------| 
D|------------------------------------------------------------------| 
A|------------------------------------------------------------------| 
D|------------------------------------------------------------------| 

E|------------------------------------------------------------------| 
B|------------------------------------------------------------------| 
G|------------------------------------------------------0h2~--------| 
D|------2-3-2-0-------2-3-2-0-------2-3-2-0--------0----------------| 
A|----0-------------0-------------0--------------0---0--------------| 
D|--0-------------2-------------3--------------5--------------------| 

E|-----------------------------------------------------------------| 
B|-----------------------------------------------------------------| 
G|-------------------------------------------------------5p2~------| 
D|------2-3-2-0-------2-3-2-0-------2-3-2-0--------0---------------| 
A|----0-------------0-------------0--------------0---0-------------| 
D|--0-------------2-------------3--------------5-------------------| 

E|-----------------------------------play-four-times------------------| 
B|--------------------------------------------------------------------| 
G|------4---4-------4----4---------6----6-------6----6----------------| 
D|----2-------2---2--------2----4---------4---4---------4-------------| 
A|--0-----0-----0------0------0-------0-----0------0------------------| 
D|--------------------------------------------------------------------| 

E|------------------------------------------------------------------------| 
B|------------------------------------------------------------------------| 
G|-----------------not-quite-sure-about-this-next-part--------------------| 
D|------------------------------------------------------------------------| 
A|------------------------------------------------------------------------| 
D|------------------------------------------------------------------------| 

E|--------------------------------------------------------------------| 
B|--------------------------------------------------------------------| 
G|--------------------------------------------------------------------| 
D|---------15----15---------15----15----------------------------------| 
A|------12----------12---12----------12-------------------------------| 
D|---12-------12------12-------12-------------------------------------| 

E|--------------------------------------------------------------------| 
B|--------------------------------------------------------------------| 
G|--------------------------------------------------------------------| 
D|--------12---12-------12----12--------------------------------------| 
A|------8---------8---8-----------8-----------------------------------| 
D|----8------8------8------8------------------------------------------| 

E|--------------------------------------------------------------------| 
B|--------------------------------------------------------------------| 
G|--------------------------------------------------------------------| 
D|---------12----12---------12------12--------------------------------| 
A|------10----------10----10------------10----------------------------| 
D|----9--------9-------9--------9-------------------------------------| 

E|--------------------------------------------------------------------| 
B|--------------------------------------------------------------------| 
G|--------------------------------------------------------------------| 
D|--------14-----14-----------14----14--------------------------------| 
A|------10----------10-----12-----------12----------------------------| 
D|---10-------10-------11--------11-----------------------------------| 

E|----------------------------------------------------------------| 
B|----------palm-mute-all-----------------------------------------| 
G|----------------------------------------------------------------| 
D|----------------------------------------------------------------| 
A|----0-------------0-------------0-------------------------------| 
D|----0---0-0-0-0---0---0-0-0-0---0---0-0-0-0-0-0-0-0-------------| 

E|---------------------------------------------------------------| 
B|----------palm-mute-all----------------------------------------| 
G|---------------------------------------------------------------| 
D|---------------------------------------------------------------| 
A|----0------------0--------------0------------------------------| 
D|----0---0-0-0-0--0---0-0-0-0----0------------------------------| 

E|--------------------------------------------------------------| 
B|--------------------------------------------------------------| 
G|--------------------------------------------------------------| 
D|---7-0-7-8----5-0-5-7---------------------5-------------------| 
A|------------------------------8-5-----4-7---------------------| 
D|-----------------------------------7--------------------------| 

E|----------------------------------------------------------------| 
B|----------------------------------------------------------------| 
G|----------------------------------------------------------------| 
D|---7-0-7-8----5-0-5-7-------------------------------------------| 
A|-----------------------------------0---DIVE-BOMB----------------| 
D|-----------------------------------0----------------------------| 

E|------------------------------------------------------------------| 
B|----------------------------------------------twice---------------| 
G|------------------------------------------------------------------| 
D|--0-----8-----5-----10-----7--------------------------------------| 
A|--0-----8-----5-----10-----7--------------------------------------| 
D|--0-----8-----5-----10-----7--------------------------------------| 

E|-----------------------------------------------------------------| 
B|----------------------------------------------twice--------------| 
G|-----------------------------------------------------------------| 
D|--0-----3-----5-----5-----7--------------------------------------| 
A|--0-----1-----2-----3-----4--------------------------------------| 
D|--0--------------------------------------------------------------| 

E|------------------------------------------------------------------| 
B|------------------------------------------------------------------| 
G|--/7-10-9-10-------/10-9-10-------/10-9-10--------/10-9-10-9------| 
D|--------------7-8------------8-9------------9-10------------------| 
A|------------------------------------------------------------------| 
D|----------------------------------------four-times----------------| 

E|--------------------------------------------------------------------| 
B|-------10-8-10-------/10-8-10-------/10-8-10------/10-8-10-8--------| 
G|--/10-----------5-7------------5-7------------7-9-------------------| 
D|--------------------------------------------------------------------| 
A|--------------------------------------------------------------------| 
D|-----------------------------------------four-times-----------------| 

E|-------------------------------------------------------------| 
B|-------------------------------------------------------------| 
G|-------------------------------------------------------------| 
D|-------------3----------------------------------7------------| 
A|-------------3----------------------------------7------------| 
D|-------------3----------------------------------7------------| 

E|-------------------------------------------------------------| 
B|-------------------------------------------------------------| 
G|-------------------------------------------------------------| 
D|------------7-----------------------------------5------------| 
A|------------5-----------------------------------3------------| 
D|-------------------------------------------------------------| 

E|-------------------------------------------------------------| 
B|-------------------------------------------------------------| 
G|-------------------------------------------------------------| 
D|-------------3----------------------------------7------------| 
A|-------------3----------------------------------7------------| 
D|-------------3----------------------------------7------------| 

E|-------------------------------------------------------------| 
B|-------------------------------------------------------------| 
G|-------------------------------------------------------------| 
D|------------7-----------------------------------5------------| 
A|------------5-----------------------------------3------------| 
D|-------------------------------------------------------------| 

E|--/13---15-13-15-17-----/8-9-12---/18-17-15-17----------------| 
B|--------------------------------------------------------------| 
G|--------------------------------------------------------------| 
D|--------------------------------------------------------------| 
A|--------------------------------------------------------------| 
D|--------------------------------------------------------------| 

E|--13-17-15-17-13-17-12-17-12-17-13-17-----8-10-8-10-12-13-15-15-17-18-----| 
B|--------this-part-twice---------------------------------------------------| 
G|--------------------------------------------------------------------------| 
D|--------------------------------------------------------------------------| 
A|--------------------------------------------------------------------------| 
D|--------------------------------------------------------------------------| 

E|--/13---15-13-15-17--------/8-9-12---18-17-15-17---------------| 
B|---------------------------------------------------------------| 
G|---------------------------------------------------------------| 
D|---------------------------------------------------------------| 
A|---------------------------------------------------------------| 
D|---------------------------------------------------------------| 

E|---13-17-15-17-13-17-12-17-12-17-13-17---------------------------| 
B|-----------------------------------------------------------------| 
G|-----------------------------------------------------twice-------| 
D|-----------------------------------------------------------------| 
A|-----------------------------------------------------------------| 
D|-----------------------------------------------------------------| 

E|----12-15-13-15-12-15-10-15-10-15-12-15---------------------------| 
B|------------------------------------------------------------------| 
G|------------------------------------------------------------------| 
D|-------------------------------------------------------twice------| 
A|------------------------------------------------------------------| 
D|------------------------------------------------------------------| 

E|--/17---18-17-18-20----/12-12-15---22-21-19-21-------------| 
B|-----------------------------------------------------------| 
G|-----------------------------------------------------------| 
D|-----------------------------------------------------------| 
A|-----------------------------------------------------------| 
D|-----------------------------------------------------------| 

E|-----------------------------------------12-13-12-13-15-17-18-18-20-22------| 
B|--15-18-17-18-15-18-13-18-13-18-15-18---------------------------------------| 
G|-------this-part-twice------------------------------------------------------| 
D|----------------------------------------------------------------------------| 
A|----------------------------------------------------------------------------| 
D|----------------------------------------------------------------------------| 

E|--/17---18-17-18-20----/12-12-15---/22-21-19-21--------------| 
B|-------------------------------------------------------------| 
G|-------------------------------------------------------------| 
D|-------------------------------------------------------------| 
A|-------------------------------------------------------------| 
D|-------------------------------------------------------------| 

E|--------------------------------------------------------------| 
B|----15-18-17-18-15-18-13-18-13-18-15-18-----------------------| 
G|--------------------------------------------------------------| 
D|--------------------------------------------------twice-------| 
A|--------------------------------------------------------------| 
D|--------------------------------------------------------------| 

E|--------------------------------------------------------------| 
B|----13-17-15-17-13-17-12-17-12-17-13-17-----------------------| 
G|--------------------------------------------------------------| 
D|--------------------------------------------------------------| 
A|---------------------------------------------------twice------| 
D|--------------------------------------------------------------| 

E|-----------------------------------------------------------------------| 
B|-----------------------------------------------------------------------| 
G|-----------------------------------------------------------------------| 
D|---3------------------------------0--------------\\\\\\\--pick---------| 
A|---1------------------------------0--------------\\\\\\\--slide--------| 
D|----------------------------------0--------------\\\\\\\---------------| 

E|------6--8--6--8--10--12--13--12--10----------------| 
B|----------------------------------------------------| 
G|----------------------------------------------------| 
D|----------------------------------------------------| 
A|----------------------------------------------------| 
D|----------------------------------------------------| 

E|-------10--12--10--12--13--15--17--15--13--------| 
B|-------------------------------------------------| 
G|-------------------------------------------------| 
D|-------------------------------------------------| 
A|-------------------------------------------------| 
D|-------------------------------------------------| 

E|-----------------------------------------------------------------------| 
B|--------------10-11~-10-10h11p10p9h10~-------10-11~-10b11r10-8~--------| 
G|------------10------------------------------9--------------------------| 
D|---/12~--/12-----------------------------/11---------------------------| 
A|-----------------------------------------------------------------------| 
D|-----------------------------------------------------------------------| 
  

top cifras avenged sevenfold
top cifras heavy metal
ver mais cifras desse artista

letras do(a) Avenged Sevenfold

Top cifras » Top artistas »
Anuncie no Cifras Termos de Uso Política de Privacidade Material de DivulgaçãoFale Conosco
Petaxxon Comunicação Online
Cifras.com.br - Melhor e mais completo site de cifras e tablaturas do Brasil
Mais de 1 milhão de cifras cadastradas desde 2003
As informações contidas no Cifras.com.br são colaborações de seus usuários e podem conter erros, sendo assim, não se responsabiliza sobre nenhuma destas.
R7 Música
close
 
redimensionar