» Cifras.com.br » Letras de músicas » Notícias » TV Cifras » Guitar Pro » Gospel
Logo Cifras.com.br

Início » Católicas » Banda Bom Pastor »

Rei da gloria

Banda Bom Pastor

Banda Bom Pastor
Rei da gloria

Escute esta músicas

Formatação

colunas A+ A- cores

Nível

Sem Nível

Nível: Sem Nível

Transcrição

enviada por reynalty


  Rei da Glória 
Bom Pastor 

Introdução: 
Base deste solo GCD 

E ------------------------------------------------10---------------------------8-7-8-7-----------10--- 
B -----8-7-8-------8-7-8-------8-7-8-10-----------10-------8-7-8------8-7-8--------------8-------10--- 
G -7------------7----------7---------------9-7----------7-----------7------------------------7--------- 
D ---------------------------------------------------------------------------------------------------- 
A ---------------------------------------------------------------------------------------------------- 
E ---------------------------------------------------------------------------------------------------- 

Este de baixo é no meio da música (aumenta o tom)  acordes : A-D-E 

E ---------------------------------------------------12------------------------------10-9-10-9---------12-- 
B ----10-9-10------10-9-10-------10-9-10-12----------12-------10-9-10------10-9-10--------------10-----12-- 
G -9------------9------------9----------------11-9---------9------------9---------------------------9------ 
D --------------------------------------------------------------------------------------------------------- 
A --------------------------------------------------------------------------------------------------------- 
E --------------------------------------------------------------------------------------------------------- 
  

top cifras banda bom pastor
top cifras católicas
ver mais cifras desse artista

letras do(a) Banda Bom Pastor

Top cifras » Top artistas »
Anuncie no Cifras Termos de Uso Política de Privacidade Material de DivulgaçãoFale Conosco
Petaxxon Comunicação Online
Cifras.com.br - Melhor e mais completo site de cifras e tablaturas do Brasil
Mais de 1 milhão de cifras cadastradas desde 2003
As informações contidas no Cifras.com.br são colaborações de seus usuários e podem conter erros, sendo assim, não se responsabiliza sobre nenhuma destas.
R7 Música
close
 
redimensionar