» Cifras.com.br » Letras de músicas » Notícias » TV Cifras » Guitar Pro » Gospel

Início » Brega » Banda Calypso » Ao Vivo »

Choro por você

Banda Calypso

Choro por você

Banda Calypso Escute esta e outras músicas enquanto navega no Cifras

Ano: 2004 - Album: Ao Vivo

Autor:

Formatação

colunas A+ A- cores

Nível

Sem Nível

Nível: Sem Nível

Transcrição

enviada por Escolhido


  INTRO: B F# E 
 
E|----------------9---------------------------12-12-11-9-7--| 
B|----------9--12---12-11-------12-11-9---------------------| 
G|-----8-11---------------11-11---------9-------------------| 
D|---9------------------------------------------------------| 
A|----------------------------------------------------------| 
E|----------------------------------------------------------| 
 
E|----------------9---------------------12---16-16-14-12-11-------| 
B|----------9--12---12-11-------12-11-9---------------------------| 
G|-----8-11---------------11-11-----------------------------------| 
D|---9------------------------------------------------------------| 
A|----------------------------------------------------------------| 
E|----------------------------------------------------------------| 
 
B          F#              E               
Por que você se foi de mim, num dia lindo 
B          F#              E 
E eu não acreditei que fosse pra valer 
B          F#              E 
Se um dia alguem me encontrar sorrindo 
B          F#              E 
Não sabe que por dentro eu choro, choro por você 
Abm          F#              E 
Eu brinquei de amor e você se entregou pra mim 
Abm          F#              E 
Me fez tudo de bom e eu não estava nem aí 
 
B          F#              E 
Agora sou eu, sou eu, que chora por você 
B          F#              E 
agora sou eu, sou eu, volta vem me ver  
       B    F#   E 
Eu te amo, OH!... 
 
SOLO: B F# E 
 
REPETE TUDO 
REFRÃO (4X) 
  

top cifras banda calypso
top cifras brega
ver mais cifras desse artista var letras desse artista
Top cifras » Top artistas »
Anuncie no Cifras Termos de Uso Política de Privacidade Material de DivulgaçãoFale Conosco
Petaxxon Comunicação Online
Cifras.com.br - Melhor e mais completo site de cifras e tablaturas do Brasil
Mais de 1 milhão de cifras cadastradas desde 2003
As informações contidas no Cifras.com.br são colaborações de seus usuários e podem conter erros, sendo assim, não se responsabiliza sobre nenhuma destas.
R7 Música
close
 
redimensionar