» Cifras.com.br » Letras de músicas » Notícias » TV Cifras » Guitar Pro » Gospel

Início » » Beethoven » »

5 Sinfonia

Beethoven

5 Sinfonia

Beethoven Escute esta e outras músicas enquanto navega no Cifras

Autor:

Tom

Formatação

colunas A+ A- cores

Instrumento

cifras tablaturaver outros instrumentos

Nível

Iniciante

Nível: Iniciante

Transcrição

enviada por FGMretro


  -3-3-3----------1-1-1------------------------------------------------------- 
--------4--------------3-------------------------------4-4-4-1--------------- 
--0-0-0--------------------------------0-0-0---1-1-1-0---------------0-0-0--- 
--------1--------3-3-3-0---------------------1-----------------------------0- 
----------------------------------------------------------------------------- 
----------------------------------------------------------------------------- 


--------1-1-1----------3-3-1-----------3-3-1-----------3-3-1---------------2 
--------------3--------------4-------3-------4-------3------4--------------3 
1-1-1-0------------------------------0---------------0------5------5-------4 
-------------------------------1-1-3-----------1-1-3--------5------4-------5 
-------------------------------------------------------------------6-------5 
---------------------------------------------------------------------------2 


---------4-4-4-1--------------------------------------------------------------- 
------------------------------------------------------------------------------- 
---------1-1-1---------------1-1-1---------------------1-1-1------------------- 
---------------3-------------------3-0-0-0-----------1-------3-0-0-0----------- 
-------------------------------------------2-------------------------2--------- 
---------------------------------------------4-4-4-3-------------------4-4-4-3- 


2-2-2--------------------------------------------1-1-0-0-3-3-1-1-4-4-3-3-6-6-- 
3-3-3-4---1-1-1-----0-0-0-3-3------1-1-1-4-4-3-3------------------------------ 
0-0-0-5-0--------------------------------------------------------------------- 
------5----------------------------------------------------------------------- 
------------------------------------------------------------------------------ 
------------------------------------------------------------------------------ 


-4-4-8-8-7-710-8111111-8------------------------13----------------------------- 
-------------------------8-8-8--------------------151512----------------------- 
-------------------------------8------------------------121010-7--------------- 
--------------------------------10-------------------------------9------------- 
----------------------------------1010-6--------------------------10-8--------- 
-----------------------------------------------------------------------10------ 


-------111111-------------------5-5-5---------------6---------------------- 
-------------13101010-----------7-7-7---------------6---------------------- 
---------------------11-8-8-8---8-8-8---------------7-----------------8---- 
-----------------------------10-----------------------------------8-------- 
--------------------------------------------------------------------------- 
--------------------------------------------------------------------------- 


------------------------------11--10--11--13---8---8------------------------- 
-------------------------11---------------------------11--------------------- 
7---8--10------------------------------------------------------8---7---8--10- 
-----------10--10----8-------------------------------------8----------------- 
----------------------------------------------------------------------------- 
----------------------------------------------------------------------------- 


---------------6---8---9---8---6---8---6---4---9--11--13--11---9--11---9---8- 
----------------------------------------------------------------------------- 
----------------------------------------------------------------------------- 
--10--10---8----------------------------------------------------------------- 
----------------------------------------------------------------------------- 
----------------------------------------------------------------------------- 



E-----------8-------8-------6-------6-------5-------5-------5-------5-------5- 
B---4---6---7---6---4---6---7---6---4---6---7---6---4---6---7---6---4---6---7- 


------5---5---6--------8-6-4-4-3-1-------------------------------------5-6-5- 
--6---7---4---9--------------------4-4-3-1-3-6-4-----3-1-----1--------------- 
-------------10----------------------------------3-0-----1-----3-0----------- 
-----------------------------------------------------------3-------0--------- 
----------------------------------------------------------------------------- 
----------------------------------------------------------------------------- 






6-5-6-5-6-8-6-4-4-3-1---------------------------------------6-6---15151511-- 
----------------------4-4-3-1-3-6-4-----3-1---------------------8---------11 
------------------------------------3-0-----1---5-3------------------------- 
----------------------------------------------3-----0-0---8----------------- 
---------------------------------------------------------------------------- 
---------------------------------------------------------------------------- 


-----------------------15151511-------------------------------6-6-6-6--------- 
1111-8-4-4-4---6-6-6-8---------111111-8-4-4-4---6-6-6-8-------6-6-6-8--------- 
---------------7-7-7-8--------------------------7-7-7-8-------7-7-7-8--------- 
-------------8--------------------------------8-------8----------------------- 
----------------------------------------------------------------------------- 
----------------------------------------------------------------------------- 


10101011---------------------|--6-6-6-3--------------------------------------- 
11111111--------------------o|---------------------------------1-1-1---3-3-3-1 
10101012---------------------|---------------------------------------1-------- 
-----------------------------|------------------------------------------------ 
----------------------------o|----------4-4-4-3------------------------------- 
-----------------------------|------------------------------------------------ 


-4-4-4-1------------------------6-6-6-3--------8-8-6-4-----3-8-8-6-4-------3- 
----------------1-1-1---3-3-3-1----------------------------1---------------1- 
----------------------0------------------------------1-1-3-0-------1-1-1-3-0- 
----------------------------------------------------------------------------- 
----------------------------------------------------------------------------- 
----------------------------------------------------------------------------- 


8-8-6-4-4-4-3-1-1-1-------------------------------------------------------6-- 
--------------------4-3-3-3-1-0--------4-4-6-8--------4-4-6-8--------10------ 
----------------------------------------------------------------------------- 
----------------------------------------------------------------------------- 
----------------------------------------------------------------------------- 
----------------------------------------------------------------------------- 


--8---9--101010-8-6------51010-8-6------5--------3-3-5-6---------2-5-6-8----- 
---------------10-8------7-------8------7----------------------1------------- 
-----------1111------------------------------------------0-2-3-------------2- 
-------------------------------------------------------------------------4--- 
----------------------------------------------------------------------------- 
----------------------------------------------------------------------------- 


------5-6-8-----------6-810-----------6-8-10-6-810111111111111111111-------- 
----7---------------8---------------8-------------101010101010101010-------- 
3-5-------------5-7---------------7---------------111111111111111111-------- 
------------7-8---------------810------------81012-------------------------- 
---------------------------10----------------------------------------------- 
---------------------------------------------------------------------------- 


121212121212121212121212--------10101010----------9-9-9---101010101010-------- 
111111111111111111111111--------11111111---------111111---101010-------8------ 
121212121212121212121212--------12121212---------121212----------------------- 
------------------------------------------------------------------------------ 
------------------------------------------------------------------------------ 
------------------------------------------------------------------------------ 


5--------------------------2-2-5---1010--151515-8-----10-------------------- 
-------3-----------1-1-3-----------101012---------------------8------------- 
-----------------------------------111112121212----------------------------- 
-------0---4-4-4------------------------------------------------------------ 
---------------------------------------------------------------------------- 
---------------------------------------------------------------------------- 


----3-----7-710--151512--------------------|---------------1------3------| 
----0-0-0-7-7----151513131313--------8-----|o---------------------------o| 
-----------------1212--------10------------|----------------------0------| 
-------------------------------------------|-2------3--------------------||| 
-------------------------------------------|o---------------------------o| 
-------------------------------------------|-----------------------------| 


|-|-|5|6|-|7|-|9|-|9-|-|9-|-|9-|-|10|-|10|-|10|-|10|--101010|10|10|10|-|10|-| 
|-|-|-|-|-|-|-|-|-|10|-|10|-|10|-|10|-|10|-|10|-|10|--------|12|13|10|-|10|-| 
|-|2|-|-|-|-|-|-|-|--|-|11|-|11|-|11|-|11|-|11|-|11|--------|--|--|--|-|--|-| 
|4|-|-|-|-|-|-|-|-|--|-|--|-|--|-|--|0|--|0|--|0|--|--------|--|--|--|0|--|0| 
|-|-|-|-|1|-|2|-|4|--|0|--|0|--|0|--|0|--|0|--|0|--|--------|--|--|--|-|--|-| 
|-|-|-|-|1|-|2|-|4|--|-|--|-|--|-|--|-|--|-|--|-|--|--------|--|--|--|-|--|-| 

10|-|10|-|10|---------4-4-4-1---------4-4-4-1---------4-4-4-1-4-4-4-1151515|15| 
10|-|10|-|10|--------------------------------------------------------------|16| 
--|-|--|-|--|--------------------------------------------------------------|--| 
--|0|--|0|--|-0------------------------------------------------------------|--| 
--|-|--|-|--|--------------------------------------------------------------|--| 
--|-|--|-|--|-4-4-4-1---------4-4-4-1---------4-4-4-1-4-4-4-1-4-4-4-1------|--| 


--151515|15|-|-|--------|-----------------------------------------1-1-1|-| 
--181818|15|-|-|--------|----------4-4-4-1-----------------------------|3| 
--------|--|-|-|---0-0-0|--1-1-1-0----------------0-0-0---1-1-1-0------|-| 
--------|--|-|-|--------|1------------------------------0--------------|-| 
--------|--|-|-|--------|3------------------------------2--------------|-| 
--------|--|-|-|--------|----------------------------------------------|-| 


--3-3-1-----------3-3-1-----------3-3-1|-|-|3-1-------------1----------- 
--------4-------3-------4-------3------|4|1|3-----4---3-4313----4---3--- 
--------0-------0-------0-------0------|0|-|4--------------------------- 
----------1-1-3-----------1-1-3--------|-|4|5--------------------------- 
---------------------------------------|-|-|5--------------------------- 
---------------------------------------|-|-|3--------------------------- 


----------------------------------------------7-------7---------------------- 
----------------------------------------------6-------6-0-0-0-1---1-1-1------ 
--1-1-1-----------------------1-1-1-----------7-------7---------0------------ 
--------3-0-0-0---------------------3---------------------------------------- 
----------------2------------------------------------------------------------ 
------------------4-4-4-3-------------4-4-4-1-------------------------------- 


------------------------------1-1-0-0-3-3-1-1-4-4-3-3-6-6-4-4-8-8-7-7-10-8- 
-0-0-0-3-3------1-1-1-4-4-3-3---------------------------------------------- 
--------------------------------------------------------------------------- 
--------------------------------------------------------------------------- 
--------------------------------------------------------------------------- 
--------------------------------------------------------------------------- 


111111-8--------------|-|--13--------------------|--|--111111----------------- 
---------8-8-8--------|-|----151512--------------|--|--------13101010--------- 
---------------8------|-|----------121010-7------|--|----------------11-8-8-8- 
----------------10----|-|-------------------9----|--|------------------------- 
------------------1010|6|--------------------10-8|--|------------------------- 
----------------------|-|------------------------|10|------------------------- 


--|2|-|-|3|-------|-|-|-|-------------------8-7-810-------------------------8- 
--|4|-|-|3|-------|-|-|-|---1-0-1-3-------8--------1010-8---1-0-1-3-------8--- 
--|5|-|-|-|--0-0-0|-|-|-|-0---------2-2-0-----------------0---------2-2-0----- 
10|-|-|-|-|-------|-|0|-|----------------------------------------------------- 
--|-|-|-|-|-------|3|-|-|----------------------------------------------------- 
--|-|-|-|-|-------|-|-|3|----------------------------------------------------- 


7-810----------------------------------------------------------------------- 
-----1010-8---1-2-1-------------------------6-8-9-8-6-8-9-8-6-8-9-8-6-8-9-8- 
------------3-------3-5-3-2-5-7-8-7-5-6-5-4--------------------------------- 
---------------------------------------------------------------------------- 
---------------------------------------------------------------------------- 
---------------------------------------------------------------------------- 


---------------------------|15|--1715131312------------10-8-----7-5-----5-3--- 
7-810-8-7-810-8-7-8-7-8-7-8|--|------------151313121012-----8-5-----6-3-----4- 
---------------------------|--|----------------------------------------------- 
---------------------------|--|----------------------------------------------- 
---------------------------|--|----------------------------------------------- 
---------------------------|--|----------------------------------------------- 


----2-3-2-3141514151715131312------------10-8-----7-5-----5-3---------3-3- 
--0--------------------------151313121012-----8-5-----6-3-----4-----0----- 
5---------------------------------------------------------------5--------- 
------------------------------------------------------------------0------- 
-------------------------------------------------------------------------- 
-------------------------------------------------------------------------- 


--121212------------------10101012121212-8---------8-8-8--------|-|---8-8-8|8| 
--------13----------------12121213---------8-8-8-5-------8------|5|---8-8-8|5| 
----------121212-9-5-5-5-0---------9-9-9-5-----------------7-7-7|-|--------|-| 
----------------------------------------------------------------|-|--------|-| 
----------------------------------------------------------------|-|--------|-| 
----------------------------------------------------------------|-|--------|-| 

---7-7-7|8|--8-8-8|8|--8-8-8|8|--8-8-8|8|--8-8-8-9-9-9-9-9-9-9-9-9-9-9-9- 
---8-8-8|8|--8-8-8|6|--6-6-6|8|--8-8-8|9|--9-9-9-9-9-9-9-9-9-9-9-9-9-9-9- 
---7-7-7|9|--9-9-9|-|-------|-|-------|-|-------101010101010101010101010- 
--------|-|-------|-|-------|-|-------|-|-------------------------------- 
--------|-|-------|-|-------|-|-------|-|-------------------------------- 
--------|-|-------|-|-------|-|-------|-|-------------------------------- 


-9-9-9-9-9------------|--|-|--11111111-----111111111111111111111111---------8 
-9-9-9-9-9------------|--|-|--13131313-----131313131313131313131313---------- 
1010101010------------|-1|-|--14141414-----141414141414141414141414---------- 
-----------------3-3-3|--|-|------------------------------------------------- 
----------------------|--|-|------------------------------------------------- 
----------------------|--|-|------------------------------------------------- 


-8-811---------------------4-3-4-3-4-3|-|--------------4-3-4-3-4-3-4-3-6-4 
---------------------4-6-8------------|-|--------4-6-8-------------------- 
-------0-0-0---4-5-8------------------|-|--4-5-8-------------------------- 
-------------1------------------------|-|--------------------------------- 
--------------------------------------|-|--------------------------------- 
--------------------------------------|-|--------------------------------- 


------------------------10-81110-8-610-8-6-4-8-6-4-3-6-4---3---3---3---3---3- 
-8-6-9-8-6-4-8-6-4-3-6-4---------------------------------6---4---3---4---6--- 
----------------------------------------------------------------------------- 
----------------------------------------------------------------------------- 
----------------------------------------------------------------------------- 
----------------------------------------------------------------------------- 


---3---3-3-8---8---8---8--13--13--13--13--1311---8--10--11--13--10-- 
-4---6-------9---8---9--12--13--12--13--15-------------------------- 
-------------------------------------------------------------------- 
-------------------------------------------------------------------- 
-------------------------------------------------------------------- 
-------------------------------------------------------------------- 


11--13--15--11--13--15---4---1---3---5---7---3---5---7---8---3---4-------1--- 
---------------------------------------------------------------------4------- 
----------------------------------------------------------------------------- 
----------------------------------------------------------------------------- 
----------------------------------------------------------------------------- 
----------------------------------------------------------------------------- 


---------------------------------------------------------6---8---9---6------- 
3---4---6---8---7---8-------1------3---4---6---3-------------------------0--- 
------------------------0---------------------------------------------------- 
-------------------------------------------------1-3-5-1--------------------- 
----------------------------------------------------------------------------- 
----------------------------------------------------------------------------- 


------------8--10--11--10---8---7---4---3-----------4---3---16---15-----15--- 
1---3---0---------------------------------------------------18---16-----16--- 
--------------------------------------------1---0---------------------------- 
----------------------------------------------------------------------------- 
----------------------------------------------------------------------------- 
----------------------------------------------------------------------------- 


----15-------------------------4---3-----------16--15-----15--------15------ 
----15-4---3---1-----------------------1---1--------------16--------15------ 
-------------------3---1---0------------------------------------------17-0-0 
----------------------------------------------------------------------17---- 
---------------------------------------------------------------------------- 
---------------------------------------------------------------------------- 


-----3-3-3-3-----3---3---3---3---3---3---3---------------3-3-3-3-315151515---- 
-----3-3-3-3-----3---4---6---3---4---6---4------------------------------16---- 
-0-0---------------------------------------------0-0-0-0-0-0-0-0-0121212------ 
------------------------------------------------------------------------------ 
------------------------------------------------------------------------------ 
------------------------------------------------------------------------------ 


---151515|15|-|-----------------------------4-3------------------------------ 
---181818|15|-|------------------4-4-4-1------------------------4-4-4-1------ 
---------|--|-|--0-0-0---1-1-1-0----------------0-0-0---1-1-1-0-------------- 
---------|--|-|--------1------------------------------1---------------------- 
---------|--|-|-------------------------------------------------------------- 
---------|--|-|-------------------------------------------------------------- 

-4-315151515--------15151515--------15151515---7---8---7---8---7---8---7---8 
----12121213--------12121213--------12121213-------------------------------- 
----12121212--------12121212--------12121212---7---8---7---8---7---8---7---8 
-----------------------------------------------9--10---9--10---9--10---9--10 
---------------------------------------------------------------------------- 
---------------------------------------------------------------------------- 


------7----------8--------------------| 
-----------------8--------------------| 
------7----------8--------------------| 
------9---------10--------------------| 
--------------------------------------| 
--------------------------------------| 
  

Conseguiu tocar essa música? Ficou legal? Então, mostre para todo mundo no Você Canta, receba notas e comentários. Cante agora

Top cifras » Top artistas »
Anuncie no Cifras Termos de Uso Política de Privacidade Material de DivulgaçãoFale Conosco
Petaxxon
Cifras.com.br - Melhor e mais completo site de cifras e tablaturas do Brasil
Mais de 1 milhão de cifras cadastradas desde 2003
As informações contidas no Cifras.com.br são colaborações de seus usuários e podem conter erros, sendo assim, não se responsabiliza sobre nenhuma destas.
R7 Música
close
 
redimensionar