» Cifras.com.br » Letras de músicas » Notícias » TV Cifras » Guitar Pro » Gospel
Logo Cifras.com.br

Início » Rock'n Roll » Bon Jovi »Cross Road »

Livin' On A Prayer

Bon Jovi

Bon Jovi
Livin' On A Prayer

Escute esta músicas

Ano: 1994
Album: Cross Road

Formatação

colunas A+ A- cores

Nível

Expert

Nível: Expert

Transcrição

enviada por HuntFamily


  Intro:  

e|----------------------------------------------------| 
B|----------------------------------------------------| 
G|----------------------------------------------------| 
D|----------------------------------------------------| 
A|----7-----5-------------5-----7-----5------------5--| 
E|--0----0-----0---0---7-----0-----0-----0--0---7-----| 

Verse 1 

e|--------------------------------------------------| 
B|--------------------------------------------------| 
G|--------------------------------------------------| 
D|---5---7------------------------------------------| 
A|---3---5-----7---5---------5---7---5--------5---7-| 
E|-/---------0---0---0--0--7---0---0---0-0--7-------| 

e|--------------------------------------------------| 
B|--------------------------------------------------| 
G|--------------------------------------------------| 
D|----5---7-----------------------------------------| 
A|----3---5------7---5---------5---7---5---------5--| 
E|-/-----------0---0---0--0--7---0---0---0-0--7-----| 

Pre-chorus 

e|----------------------------------------------------------| 
B|----------------------------------------------------------| 
G|----------------------------------------------------------| 
D|-5-7---7-7-9---5-7---7-7-9---5-7---7-7-9-7-5---7--7--7--7-| 
A|-3-5---5-5-7---3-5---5-5-7---3-5---5-5-7-5-3---5--5--5--5-| 
E|----------------------------------------------------------| 

Chorus 

e|--------------------------------------------------| 
B|--------------------------------------------------| 
G|--------------------------------------------------| 
D|-------5---7-------5---7-------5---7-------5---7--| 
A|---2---3---5---5---3---5---2---3---5---5---3---5--| 
E|---0-----------3-----------0-----------3----------| 

e|-----------------------------------------------------------| 
B|-----------------------------------------------------------| 
G|-----------------------------------------------------------| 
D|-----------------------------------------------------------| 
A|-----7-----5-------------5-----7-----5-------------5-----7-| 
E|--0-----0-----0---0---7-----0-----0-----0---0---7-----0----| 

verso 2 


e|----------------------------------------------------| 
B|----------------------------------------------------| 
G|----------------------------------------------------| 
D|----------------------------------------------------| 
A|----7-----5-------------5-----7-----5------------5--| 
E|--0----0-----0---0---7-----0-----0-----0--0---7-----| 

e|-------------------------------------------------------| 
B|-------------------------------------------------------| 
G|-------------------------------------------------------| 
D|-----------------------------------------------------5-| 
A|----7-----5-------------5-----7-----5------------5---3-| 
E|--0----0-----0---0---7-----0-----0-----0--0---7--------| 

e|-------------------20b22------------------------------| 
B|-10b12----10------------------20---17--------0(AL)----| 
G|------------------------------------------------------| 
D|------------------------------------------------------| 
A|------------------------------------------------------| 
E|------------------------------------------------------| 

e|----------------------------------------------------| 
B|----------------------------------------------------| 
G|----------------------------------------------------| 
D|----------------------------------------------------| 
A|----7-----5-------------5-----7-----5------------5--| 
E|--0----0-----0---0---7-----0-----0-----0--0---7-----| 

e|---------------------------------------------------------| 
B|---------------------------------------------------------| 
G|---------------------------------------------------------| 
D|-----------------------------------------------------5--7| 
A|----7-----5-------------5-----7-----5------------5---3--5| 
E|--0----0-----0---0---7-----0-----0-----0--0---7----------| 

e|----------------------------------------------------| 
B|----------------------------------------------------| 
G|----------------------------------------------------| 
D|----------------------------------------------------| 
A|----7-----5-------------5-----7-----5------------5--| 
E|--0----0-----0---0---7-----0-----0-----0--0---7-----| 

Solo 

e|----------------------------------------------------------| 
B|----------------------------------------------------------| 
G|-12(HA)----7(HA)----5(HA)---------------------------------| 
D|-12(HA)----7(HA)----5(HA)----------------5--7b8--7--------| 
A|-----------------------------7--5--7--7-------------5--5--| 
E|--------------------------/-------------------------------| 

e|------12---14---15---12--------------------------------------| 
B|--12---------------------12--13--15---15b17---15b17r15----15-| 
G|-------------------------------------------------------------| 
D|-------------------------------------------------------------| 
A|-------------------------------------------------------------| 
E|-------------------------------------------------------------| 

e|-------------------------------------------12-14-15-12-----| 
B|-12-x--13--xx---12--x-------------------12-------------12--| 
G|-12-x--14--xx---12--x--------------------------------------| 
D|-----------------------11b12r11--12------------------------| 
A|------------------------------------12---------------------| 
E|-----------------------------------------------------------| 

e|--------------------------------------------------17--19--| 
B|-13--12----------------------------------17-19-20---------| 
G|---------12---15b17r15b17------16-17--19------------------| 
D|---------------------------19-----------------------------| 
A|----------------------------------------------------------| 
E|----------------------------------------------------------| 

Chorus 

e|--------------------------------------------------------------| 
B|--------------------------------------------------------------| 
G|-------------------------------3--5-----3--5----3--5-----3--5-| 
D|-5--7--7-7--9-7-5---7-7-7-7----1--3--3--1--3----1--3--3--1--3-| 
A|-3--5--5-5--7-5-3---5-5-5-5--5-------1--------5-------1-------| 
E|-----------------------------3----------------3---------------| 



  

top cifras bon jovi
top cifras rock'n roll
ver mais cifras desse artista

letras do(a) Bon Jovi

Top cifras » Top artistas »
Anuncie no Cifras Termos de Uso Política de Privacidade Material de DivulgaçãoFale Conosco
Petaxxon Comunicação Online
Cifras.com.br - Melhor e mais completo site de cifras e tablaturas do Brasil
Mais de 1 milhão de cifras cadastradas desde 2003
As informações contidas no Cifras.com.br são colaborações de seus usuários e podem conter erros, sendo assim, não se responsabiliza sobre nenhuma destas.
R7 Música
close
 
redimensionar