» Cifras.com.br » Letras de músicas » Notícias » TV Cifras » Guitar Pro » Gospel
Logo Cifras.com.br

Início » Rock Alternativo » Charlie Brown Jr. » »

Senhor do Tempo

Charlie Brown Jr.

Senhor do Tempo

Charlie Brown Jr. Escute esta e outras músicas enquanto navega no Cifras

Autor:

Tom

Formatação

colunas A+ A- cores

Nível

Avançado

Nível: Avançado

Transcrição

enviada por abrahão


  Intro 2x (Guita 1) 
       E F               G      F E        E F             G      F E     
E|----------------------------------------------------------------------| 
B|----------------------------------------------------------------------| 
G|---------------------------------------------------------------------º| 
D|-----9\10-10---10-----/12-----10/9-------9/10-10--10-----/12----10/9-º| 
A|-----7\8---8----8-----/10------8/7-------7/8--8----8-----/10-----8/7--| 
E|-8-8---------8----7-7-----5-5------7/8-8--------8----7-7----5-5-------| 
 
Solo 1 (guita 2) / Toca quando repete intro pela 2º vez 
e|-------------------------------------------------------| 
B|-------------------------------------------------------| 
G|-----0-----2-------0------0-----2-------0--------------| 
D|-------3-----5---3----------3-----5---3----------------| 
A|---3-----3--------------3-----3------------------------| 
E|-1-------------1------1-------------1------------------| 
 
Solo 2 (guita 3) / Toca junto com solo 1 
e|-------------------------------------------------------| 
B|------7----7--------------------------------------------| 
G|---5-----7---7---7--------------------------------------| 
D|--5-----------7---7------------------------------------| 
A|-------------------------------------------------------| 
E|-------------------------------------------------------| 
  |----harmônico natural, quinta e sétima casa-| 
 
 
Começa a cantar  (Toca-se a intro) 
       E F               G      F E        E F             G      F E     
E|----------------------------------------------------------------------| 
B|----------------------------------------------------------------------| 
G|---------------------------------------------------------------------º| 
D|-----9\10-10---10-----/12-----10/9-------9/10-10--10-----/12----10/9-º| 3X 
A|-----7\8---8----8-----/10------8/7-------7/8--8----8-----/10-----8/7--| 
E|-8-8---------8----7-7-----5-5------7/8-8--------8----7-7----5-5-------| 
 
{CANTO 1} 
Eu não sou Sr. Do tempo mas eu sei que vai chover 
Me sinto muito bem, quando fico com você 
Eu tenho habilidade de fazer histórias tristes virarem melodia 
Vou vivendo o dia a dia 
Na paz na moral, na humilde busco só sabedoria aprendendo todo o dia 
Me espelho em você, conjunto com você 
Vivo junto com você, faço tudo com você 
 
INTRO + Solo 1 + Solo 2 
 
{canto 2} 
Seguindo em frente com fé e intenção 
Continuo na missão, continuo por você e por mim 
Porque quando a casa cai, não dá pra fraquejar 
Quem é guerreiro ta ligado que guerreiro é assim 
 
Pré-Refrão (guita 1) 
e|---------------------------------------------------|    | 
B|------6?-6/8-----6---------------------------------|    | 
G|---------0-----------------------------------------| 4x | 
D|---7----------------7------9/10-10-----------------|    | 
A|-8-------8/10--8-8--8------7/8--8------------------|    | 
E|-----------------------5-5-------------------------|    |  
                                                          | 
Pré-Refrão (guita 2)                                      | 
e|---------------------------------------------------|    | 
B|------6?-8---6---------7---------------------------|    | 
G|---------0-----------7---7-------------------------| 4x | 
D|---7-----------7---7-------------------------------|    | 
A|-8---------8---------------------------------------|    | 
E|---------------------------------------------------|    | 
                   |--harmônico natural--|                | 
 
 
{Canto 3 com pré-Refrão} 
O tempo passa e um dia a gente aprende 
Hoje eu sei realmente o que faz a minha mente 
Eu vi o tempo passar e pouca coisa mudar  
Então tomei um caminho diferente 
Tanta gente equivocada, faz mau uso da palavra 
Falam, falam o tempo todo mas não tem nada a dizer... 
Mas eu tenho santo forte, é incrível a minha sorte 
Agradeço todo o tempo por ter encontrado você. 
 
       E F               G      F E        E F             G      F E     
E|----------------------------------------------------------------------| 
B|----------------------------------------------------------------------| 
G|---------------------------------------------------------------------º| 
D|-----9\10-10---10-----/12-----10/9-------9/10-10--10-----/12----10/9-º| 
A|-----7\8---8----8-----/10------8/7-------7/8--8----8-----/10-----8/7--| 
E|-8-8---------8----7-7-----5-5------7/8-8--------8----7-7----5-5-------| 
 
O tempo é rei e a vida é uma lição 
E um dia a gente cresce e conhece nossa essência e ganha experiência 
E aprende o que é raiz então cria consciência 
Tem gente que reclama da vida o tempo todo 
Mas a lei da vida é quem dita o fim do jogo 
Eu vi de perto o que neguinho é capaz por dinheiro 
Eu conheci o próprio lobo na pele de cordeiro 
Infelizmente a gente tem que estar ligado o tempo inteiro 
Ligado nos pilantra e também nos bagunceiro 
E agente se pergunta porque a vida é assim 
É difícil pra você e é difícil pra mim... 
 
INTRO + Solo 1 + Solo 2 
 
{CANTO 1} 
Eu não sou Sr. Do tempo mas eu sei que vai chover 
Me sinto muito bem, quando fico com você 
Eu tenho habilidade de fazer histórias tristes virarem melodia 
Vou vivendo o dia a dia 
Na paz na moral, na humilde busco só sabedoria aprendendo todo o dia 
Me espelho em você, conjunto com você 
Vivo junto com você, faço tudo com você 
 
 
Solo 3 (tocado com a intro) 
e|-----------------------------------------------------------| 
B|-6-----6-----6-----6-----6------9-----9----4-----4-----4---| 
G|---5-----5-----5-----5-----5------8-----8----3-----3-------| 4x 
D|-----3-----3-----3-----3-----3------6----------1-----1-----| 
A|-----------------------------------------------------------| 
E|-----------------------------------------------------------| 
 
Vivendo nesse mundo louco hoje só na brisa 
Viver para ser melhor é o melhor jeito de ganhar a vida... 
 
 
{Canto 3 com pré-Refrão} 
O tempo passa e um dia a gente aprende 
Hoje eu sei realmente o que faz a minha mente 
Eu vi o tempo passar e pouca coisa mudar  
Então tomei um caminho diferente* 
Tanta gente equivocada, faz mau uso da palavra 
Falam, falam o tempo todo mas não tem nada a dizer... 
Mas eu tenho santo forte, é incrível a minha sorte 
Agradeço todo o tempo por ter encontrado você. 
 
 
Solo 3 (tocado com a intro) 
e|-----------------------------------------------------------| 
B|-6-----6-----6-----6-----6------9-----9----4-----4-----4---| 
G|---5-----5-----5-----5-----5------8-----8----3-----3-------| 4x 
D|-----3-----3-----3-----3-----3------6----------1-----1-----| 
A|-----------------------------------------------------------| 
E|-----------------------------------------------------------| 
 
{intro + solo 3} 
Vem que o bom astral vai dominar o mundo 
Eu já briguei com a vida hoje eu fico bem com todo mundo ae 
Now a moral.. Charlie Brown 
 
{intro + solo 1 + solo 2} 
Vivendo nesse mundo louco hoje só na brisa 
Viver para ser melhor é o melhor jeito de ganhar a vida... 
 
A música termina a intro somente. 
 
| Bruno Gomes / 15/11/2005 00:48| 
 
***Notações - efeitos*** 
Para a intro um guitarra acústica ou violão. 
Solo 1, flanger com dalay 
Solo 2 com flanger e dalay 
Solo 3 com flanger e dalay 
 

  

top cifras charlie brown jr.
top cifras rock alternativo
ver mais cifras desse artista var letras desse artista
Top cifras » Top artistas »
Anuncie no Cifras Termos de Uso Política de Privacidade Material de DivulgaçãoFale Conosco
Petaxxon Comunicação Online
Cifras.com.br - Melhor e mais completo site de cifras e tablaturas do Brasil
Mais de 1 milhão de cifras cadastradas desde 2003
As informações contidas no Cifras.com.br são colaborações de seus usuários e podem conter erros, sendo assim, não se responsabiliza sobre nenhuma destas.
R7 Música
close
 
redimensionar