» Cifras.com.br » Letras de músicas » Notícias » TV Cifras » Guitar Pro » Gospel
Logo Cifras.com.br

Início » Sertanejo » Chitãozinho & Xororó »

Saudades da minha Terra

Chitãozinho & Xororó

Chitãozinho & Xororó
Saudades da minha Terra

Escute esta músicas

Autor: (Goiá / Belmonte)

Formatação

colunas A+ A- cores

Nível

Iniciante

Nível: Iniciante

Transcrição

enviada por SergioPartinski


  Introdução: 
   E            B                  E                    B        A    G#m   F#m   E 
E|-----------------------------------------------------------------------------------| 
B|--9-----9----------10-9---10-9-------9-9-9-----9-----12-12-12-10-10-9-9-9----------| 
G|---11-9--11-9-8---------11----11-9--------11-9--11-9----------------------11-11-9--| 
D|-----------------------------------------------------------------------------------| 
A|-----------------------------------------------------------------------------------| 
E|-----------------------------------------------------------------------------------| 
 
 
Final:  
                               E   B7       E 
Foi lá que nasci, lá quero morrer 
 
E|----------------------------------------------| 
B|----------------------------------------------| 
G|----------------------------------------------| 
D|----------------------------------------------| 
A|----------------------------------6-----6-7---| 
E|------------------------------------7-9-------| 
 
 
Tablatura transcrita por Sérgio Partinski 

  

top cifras chitãozinho & xororó
top cifras sertanejo
ver mais cifras desse artista

letras do(a) Chitãozinho & Xororó

Top cifras » Top artistas »
Anuncie no Cifras Termos de Uso Política de Privacidade Material de DivulgaçãoFale Conosco
Petaxxon Comunicação Online
Cifras.com.br - Melhor e mais completo site de cifras e tablaturas do Brasil
Mais de 1 milhão de cifras cadastradas desde 2003
As informações contidas no Cifras.com.br são colaborações de seus usuários e podem conter erros, sendo assim, não se responsabiliza sobre nenhuma destas.
R7 Música
close
 
redimensionar