» Cifras.com.br » Letras de músicas » Notícias » TV Cifras » Guitar Pro » Gospel

Início » Romântica » Daniel » Meu Reino Encantado »

Meu reino encantado

Daniel

Meu reino encantado

Daniel Escute esta e outras músicas enquanto navega no Cifras

Ano: 2000 - Album: Meu Reino Encantado

Autor:

Formatação

colunas A+ A- cores

Nível

Iniciante

Nível: Iniciante

Transcrição

enviada por L_Ing


   Introdução: A E7  E7 A  A D E7A E7 A  (Riff 1) 
 
      A 
Eu nasci num recanto feliz 
                                    E7 
Bem distante da povoação 
Foi ali que eu vivi muitos anos 
             D           E7              A 
Com papai, mamãe e os irmãos 
Nossa casa era uma casa grande 
                                   E7      Riff 2 
Na encosta de um espigão  
Um cercado para guardar bezerro  
                                               A      E7 A E7 A (Riff 3) 
E ao lado um grande mangueirão 
 
          A                              
No quintal tinha um forno de lenha  
                                                 E7  
E um pomar onde as aves cantavam 
Um coberto para guardar  pilão 
          D                 E7        A 
E as tralhas que o papai usava 
De manhã eu ia no paiol 
                                           E7       Riff 2 
Uma espiga de milho eu pegava 
Debulhava e jogava no chão 
                                                  A       Intro 
Num instante as galinhas juntavam 
 
             A       
Nosso carro de boi conservado 
                                             E7 
Quatro juntas de bois de primeira 
Quatro cangas dezesseis cansis  
           D           E7           A 
Encostados no pé da figueira 
Todo sábado eu ia na vila 
                                                E7       Riff 2 
Fazer compras pra semana inteira 
O papai ia gritando com os bois 
                                            A            E7 A E7 A (Riff 3) 
Eu na frente abrindo as porteiras 
 
            A                                 Riff 4 
Nosso sítio que era pequeno  
                                          E7         Riff 5 
Pelas grandes fazendas cercado 
Precisamos vender a propriedade   Riff 6 
               D            E7          A           (Riff 7)  Riff 4 
Para um grande criador de gado 
E partimos pra cidade grande  
                                         E7      Riff 2 
A saudade partiu ao meu lado 
A lavoura virou colonião 
                                                  A       Intro 
E acabou-se o meu reino encantado. 
 
         A                                        Riff 4 
Hoje ali só existem três coisas  
                                             E7     Riff 5 
Que o tempo ainda não deu fim 
A tapera velha desabada               Riff 6 
           D           E7              A      (Riff 7)  Riff 4 
E a figueira acenando pra mim 
E por último marcou saudade  
                                               E7   Riff 2 
De um tempo bom que já se foi 
Esquecido em baixo da figueira 
                                    A    D E7 A (Riff 8) 
Nosso velho carro de boi. 
 
 
Riff 1: 
e--------5-----5--9--5--14--12---12-12-12--|-------7----7-12--12--10--9--9-9-9----| 
B-----5-----5--------------------------------------|----9----9----------------------------------| 
G--6-----------------------------------------------|--9------------------------------------------| 
D---------------------------------------------------|----------------------------------------------| 
A---------------------------------------------------|----------------------------------------------| 
E---------------------------------------------------|----------------------------------------------| 
 
e---------5------5--9--7--9--10---10-9-7-5-----7-5-------------------------------------|---------------------| 
B-----5------5------------------------------------9--------9-7-5-9-7-5------5-------------|--------------------| 
G--6------------------------------------------------------------------------7-6----7-6-------|--------------------| 
D-----------------------------------------------------------------------------------------9-7--|------0-2-0-------| 
A------------------------------------------------------------------------------------------------|--4----------2-0--| 
E------------------------------------------------------------------------------------------------|--------------------| 
 
Riff 2:                                                    Riff 3: 
e------6/7--------9---6/7----7--9--12---|-------------------------------------------------| 
B---9------9/10-----------9---------------|-------------------------------------------------| 
G-9-----------------------------------------|------------------2---------------------4--2---| 
D--------------------------------------------|---0-2---0----2----------------0--2----------| 
A--------------------------------------------|4-----------4----------4--2-4-----------------| 
E--------------------------------------------|-------------------------------------------------| 
       
   Riff 4              Riff 5      Riff 6       Riff 7            Riff 8 
e-------7-7/9-|------------|------------|------------|------------------------------| 
B--10---------|--9-7------|------------|--7-5-2---|-----------------------------| 
G--------------|-------9----|--9-7-9---|------------|---------------------4-2---| 
D--------------|-------------|------------|------------|-------------0-2-0--------| 
A--------------|-------------|------------|------------|--0-4-2-4----------------| 
E--------------|-------------|------------|------------|---------------------------| 
 
 
 
 E ai povo? Eh... a musica original  
tah em si mas não da pra toca o solo no violão 


  

Top cifras » Top artistas »
Anuncie no Cifras Termos de Uso Política de Privacidade Material de DivulgaçãoFale Conosco
Petaxxon Comunicação Online
Cifras.com.br - Melhor e mais completo site de cifras e tablaturas do Brasil
Mais de 1 milhão de cifras cadastradas desde 2003
As informações contidas no Cifras.com.br são colaborações de seus usuários e podem conter erros, sendo assim, não se responsabiliza sobre nenhuma destas.
R7 Música
close
 
redimensionar