» Cifras.com.br » Letras de músicas » Notícias » TV Cifras » Guitar Pro » Gospel
Logo Cifras.com.br

Início » Brasil » Dilermando reis »

Abismo De Rosas

Dilermando reis

Dilermando reis
Abismo De Rosas

Escute esta músicas

Autor: (Jacomino / Dilermando)

Formatação

colunas A+ A- cores

Instrumento

cifras tablaturaver outros instrumentos

Nível

Expert

Nível: Expert

Transcrição

enviada por Acelot


  


 INTRODUÇÃO 


 e|-0-0-0-0---0-0-0-0---0-0-0-0-----------12(HA)----------7(HA)-| 
 B|---------2---------2---------3-------0-12(HA)--------0-7(HA)-| 
 G|---------2---------0---------1-----1---------------1---------| 
 D|-------------------------------1h2-------------1h2-----------| 
 A|---------0---------1---------2-------------------------------| 
 E|---------------------------------------------0--------------0| 




 e|-----------5(HA)---------------------------------------------| 
 B|---------0-5(HA)---------------------------------------------| 
 G|-------1-----------------------------------------------------| 
 D|---1h2-------------------------------------------------------| 
 A|-------------------------------------------------------------| 
 E|------------------0------------------------------------------| 



 Parte A 



 e|----------------------------------------------12(HA)---------| 
 B|---2----1---2\---9---7/--2-------0h2p0---------------2--2----| 
 G|---------------------------2-2---------2-1h2---------2--2----| 
 D|---------------------------2-2-------------------------------| 
 A|-4----3---4\-----11--9/--0-----0-----------------------------| 
 E|----------------0-----------------------------0--------------| 



 e|-12(HA)--------12(HA)----------------------------------------| 
 B|---------2--2----------3-3---3-3---3---2--3\---9---7/-3------| 
 G|---------3--3----------4-4---4-4------------------------4-4--| 
 D|--------------------------------------------------------6-6--| 
 A|---------------------------------5---4----5\---11--9/-5------| 
 E|-0-------------0-----------0-----------------0---------------| 



 e|-----12(HA)---------2-0--------------------------------------| 
 B|---0--------0-0---3-----3-2p0--1-------2---------------------| 
 G|-3----------1-1----------------2-2-2---2---------------------| 
 D|-------------------------------1-1-1---2---------------------| 
 A|---------------------------------------0-------------0---2---| 
 E|-----0----------0--------------2------------0--2--4----------| 




 e|---------------------------------------5-----5-----7---7/9-9-| 
 B|---2----1---2\---9---7/--2---------------5-----5-----5-------| 
 G|---------------------------2-2---2---------6-----6---6-------| 
 D|---------------------------2-2---2---------------------------| 
 A|-4----3---4\-----11--9/--0-----0-------------------7---------| 
 E|----------------0------------------4/5-----------------------| 




 e|-7---------------5------5-------7----7-5-7/10--9-------------| 
 B|----7-7----7-7---7-7------7-----6-6---------------10---------| 
 G|----7-7----7-7---7---7------7---7-7---------------9---9\--2--| 
 D|-0-------0-------0--------------0----------------------------| 
 A|-----------------------------------------------0----------0--| 
 E|-------------------------------------------------------------| 



 e|--------------12(HA)-------12(HA)--------------------5-------| 
 B|-0h2-0---------------0--0-----------2-------------5--5-------| 
 G|-------2-1h2---------1--1---------1-------------6----6-------| 
 D|---------------------------------------2\7--6-7--------------| 
 A|---------------------------------------0-------------0-------| 
 E|--------------0------------0---------------------------------| 




 Parte B 




 e|-5-----5------8---8/10-10--8------7-----7--------------7-----| 
 B|-----5---5------5----------6-6-6--6---6---6----------0----0--| 
 G|---5-------5----5----------7-7-7--7-7-------7------7------7--| 
 D|--------------7------------0------0--------------------------| 
 A|-0---------------------------------------------6/7-----7-----| 
 E|-----------------------------------------------0-------------| 




 e|-7/8--7----5-----8/12--12-12--11/12---12-12--13---12-12-12---| 
 B|--------0----5--10/13--13-13--12/13---13-13--15---13-13-13---| 
 G|--------7----5-----------------------------------------------| 
 D|-----------7-------------------------------------------------| 
 A|------7----------------0--------------0-----------0----------| 
 E|-------------------------------------------------------------| 




 e|-10-10-10/13---13-13--12/13---13--15---13-13-13---12-12-12---| 
 B|-12-12-12/15---15-15--13/15---15--17---15-15-15---13-13-13---| 
 G|-------------------------------------------------------------| 
 D|---------------0--------------0--------0---------------------| 
 A|--------------------------------------------------0----------| 
 E|-0-----------------------------------------------------------| 




 e|-5-----5------8---8/10-10--8------7-----7--------------7-----| 
 B|-----5---5------5----------6-6-6--6---6---6----------0----0--| 
 G|---5-------5----5----------7-7-7--7-7-------7------7------7--| 
 D|--------------7------------0------0--------------------------| 
 A|-0---------------------------------------------6/7-----7-----| 
 E|-----------------------------------------------0-------------| 




 e|-7/8--7-------5-------------0-0-3--3----2-2/5--3-------1-----| 
 B|--------0-0-----5-5-----2-2--------2-2-----------2-2---3--3--| 
 G|--------7-7-----5-5---2------------0-0-----------0-0---2--2--| 
 D|--------------7----------------------------------------0-----| 
 A|------7---------------0------------0-----------0-------------| 
 E|-------------------------------------------------------------| 




 e|------------12(HA)------12(HA)-------------------5-----------| 
 B|-------------------1-1-----------0------------5--5-----------| 
 G|-------------------2-2---------1------------6----6-----------| 
 D|---------0--------------------------2/7-6-7------7-----------| 
 A|-0h1h2h3----------------------------0--------------------0-1-| 
 E|------------0-----------0--------------------------0-2-4-----| 




 Parte C




 e|-2-----2--0--5--2--0----0----2-----0h2-0-------------2-------| 
 B|-3--3--3--2-----------2----3---3----------3-----3--2---3p2---| 
 G|-2--2--2--0--2--------2----------2--------4--4--4--3---------| 
 D|-0--------------4----------0--------------4--4--4--4---------| 
 A|----------0--------0----------------------2------------------| 
 E|---------------------------------------------------2---------| 




 e|---------------2---------------------------12(HA)------------| 
 B|-2----2------3---3--1---0-----------12(HA)-------------------| 
 G|----3-3----4----------2------12(HA)----------------4--3------| 
 D|----4-----------------1--------------------------------------| 
 A|---------2-----------------------------------------2--1--0---| 
 E|-2------------------2------0---------------------------------| 




 e|-----2-----2/7--5-2------------0-----------0--2--3--5--------| 
 B|---3---3------------5-0------0----3--2--3--2--2--2--5--7--5--| 
 G|-2-------2--------------2--1------1--1--1--0--0--0--6--6--6--| 
 D|----------------------------------2--2--2--------------------| 
 A|-------------------------------------------0--------0--------| 
 E|---------------------------0------0--------------------------| 





 e|-2-----2--0--5--2--0----0----2-----0h2-0-------------2-------| 
 B|----3--3--2-----------2----3---3----------3-----3--2---3p2---| 
 G|----2--2--0--2--------2----------2--------4--4--4--3---------| 
 D|-0--------------4----------0--------------4--4--4--4---------| 
 A|----------0--------0----------------------2------------------| 
 E|---------------------------------------------------2---------| 




 e|---------------2------------------0---------------2------2/7-| 
 B|-2----2------3---3------------0-------0---------3---3--------| 
 G|----3-3----4--------------0---------------3---2-------2------| 
 D|----4-----------------2---------2----------------------------| 
 A|---------2------------------2-------2---1---0----------------| 
 E|-2------------------0---3------------------------------------| 




 e|-5-2-----------0--------0--5--2------------2--5--2/--7-------| 
 B|-----5-0-----0--------2-----------3--2--3------------5-------| 
 G|--------2--1--------2--------------------------------5-------| 
 D|--------------------------------0--------------------0-------| 
 A|------------------0------------------------------------------| 
 E|-----------0-------------------------------------------------| 
  

top cifras dilermando reis
top cifras brasil
ver mais cifras desse artista

letras do(a) Dilermando reis

Top cifras » Top artistas »
Anuncie no Cifras Termos de Uso Política de Privacidade Material de DivulgaçãoFale Conosco
Petaxxon Comunicação Online
Cifras.com.br - Melhor e mais completo site de cifras e tablaturas do Brasil
Mais de 1 milhão de cifras cadastradas desde 2003
As informações contidas no Cifras.com.br são colaborações de seus usuários e podem conter erros, sendo assim, não se responsabiliza sobre nenhuma destas.
R7 Música
close
 
redimensionar