» Cifras.com.br » Letras de músicas » Notícias » TV Cifras » Guitar Pro » Gospel

Início » Pop Music » Dragon Ball » »

Tema De Abertura Do Gt

Dragon Ball

Tema De Abertura Do Gt

Dragon Ball Escute esta e outras músicas enquanto navega no Cifras

Autor:

Tom

Formatação

colunas A+ A- cores

Instrumento

cifras tablaturaver outros instrumentos

Nível

Expert

Nível: Expert

Transcrição

enviada por nanddo7


  Dragon Ball GT 

e|-3-3-----3-5-3----------------------------| 
B|-----5-6-------6-5-3--5-5-----5-6-5-------| 
G|--------------------------5-7-------7-5-2-| 
Seu sorriso é tão resplandecente, que deixou meu coração alegre  

e|-----5-3---------------------------------| 
B|---------------3-5-6-5-3---3-3---3-1-0-1-| 
G|-2-5------(5)------------5---------------| 
Me dê a mão , prá fugir desta terrivel escuridão  

e|------------| 
B|-1/5-5-5/12-| (Não é necessário tocar) 
G|------------| 

e|-8-8-8-8-8-6-4-6-8-6-| 
B|---------------------| 
Desde o dia em que eu te reencontrei, 

e|-6-6-6-6-6-4-3-4-6-4-| 
B|---------------------| 
Me lembrei daquele lindo lugar,  

e|-4-4-4-4-4-3----------3--------3-| 
B|-------------6-4--4-6---4--4-6---| 
Que na minha infância era especial para mim  

e|-3-4-6-8--8-8-8-8-8-6-4-6-8-6-| 
B|------------------------------| 
Quero saber se comigo você quer vir dançar, 

e|-6-6-8-10-10-11-----------| 
B|----------------11--9-8-9-| 
Se me der a mão eu te levarei,  

e|------------| 
B|-9-11-9-9-8-| 
Por um caminho 

e|----15-13-13--12--13-12-13-| 
B|-8-------------------------| 
Cheio de sombras e de luz. 

e|-4-6-8-8-6-8-8-6-8-| 
B|-------------------| 
Você pode até não perceber, 

e|-6-10-8-6-4-4-3-4-3-3-4-3-| 
B|--------------------------| 
Mas o meu coração se amarrou em você,  

e|-3-4-6-8-10---11-8-| 
B|-------------------| 
Que precisa de alguém 

e|-8-10-12-8-12-10-| 
b|-----------------| 
Pra te mostrar o amor 

e|-10-12-10-12-14-| 
B|----------------| 
Que o mundo te dá... 



e|-14-14-11-12-14-16-14-12-11-9-| 
B|------------------------------| 
Meu alegre coração palpita, 

e|-11-11-------11-12-11---------| 
B|-------12-14----------14-12-9-| 
Por um universo de esperança. 

e|-------16-14------9-11-12-11-9-----11---9-| 
B|-9-12---------12---------------12---------| 
Me dê a mão, a magia nos espera. 

e|-14-14-11-12-14-16-14-12-11-9-| 
B|------------------------------| 
Vou te amar por toda a minha vida, 

e|-11-11-------11-12-11---------| 
B|-------12-14----------14-12-9-| 
Vem comigo por este caminho. 

e|-------16-14------9-11-12-11-9-----9-9---9-7-6-7-| 
B|-9-12---------12---------------12----------------| 
Me dê a mão, prá fugir desta terrivel escuridão. 
  

top cifras dragon ball
top cifras pop music
ver mais cifras desse artista var letras desse artista
Top cifras » Top artistas »
Anuncie no Cifras Termos de Uso Política de Privacidade Material de DivulgaçãoFale Conosco
Petaxxon Comunicação Online
Cifras.com.br - Melhor e mais completo site de cifras e tablaturas do Brasil
Mais de 1 milhão de cifras cadastradas desde 2003
As informações contidas no Cifras.com.br são colaborações de seus usuários e podem conter erros, sendo assim, não se responsabiliza sobre nenhuma destas.
R7 Música
close
 
redimensionar