» Cifras.com.br » Letras de músicas » Notícias » TV Cifras » Guitar Pro » Gospel
Logo Cifras.com.br

Início » Rock'n Roll » Enrique Bunbury » »

Frente A Frente

Enrique Bunbury

Frente A Frente

Enrique Bunbury Escute esta e outras músicas enquanto navega no Cifras

Autor:

Formatação

colunas A+ A- cores

Nível

Expert

Nível: Expert

Transcrição

enviada por NIZRCITA


  Bueno tarde un poco en sacarla pero poes no quedo tan mal. 
Tab dedicado a una de las mejores muchachas que he conocido shikis 
ahi te va con mucho gusto. 

intro 
|-------------------|----| 
|------------3------|----| 
|------------3------|----| 
|-------5----5--5---|-x2-|tambn pueden cambiar el ultimo 
|-----5---5--5------|----|5 por 0 de la tercera 
|---3---------------|----|cuerda y se eskusha mejor 

(aqui se toca el intro) 
Queda, que poco queda   
     Gm-F 
de nuestro amor 
   F-A#              A#-D 
apenas queda nada, apenas ni palabras 
quedan... 

|-------------------|----| 
|------------3------|----| 
|------------3--0---|----| 
|-------5----5------|-x2-| 
|-----5---5--5------|----| 
|---3---------------|----| 
Queda, solo el silencio 
      Gm-F   
que hace estallar 
   F-A#                       A#-D         
la noche fría y larga, la noche que no acaba 
             Gm-pausa 
solo eso queda 

            Gm-F                    D#-Fm       
Solo quedan las ganas de llorar, al ver que 
          F-A#       A#-D 
nuestro amor se aleja,  
          Gm-F    
frente a frente, bajamos 
      D#-Fm                 F-A# 
la mirada, pues ya no queda nada de que hablar, 
A#-D 
nada.. 


|------------------------| 
|------------------------| 
|------------------------| 
|-1-0--------------------| 
|-----3-1----------------| 
|---------3--------------| 

|-------------------|----| 
|------------3------|----| 
|------------3------|----| 
|-------5----5--5---|-x2-| 
|-----5---5--5------|----| 
|---3---------------|----| 
Queda, poca ternura, 
           Gm-F 
 y alguna vez, haciendo 
      F-A#      A#-D                  D-pausa 
una locura, un beso y a la fuerza, queda.. 


|-------------------|----| 
|-------------------|----| 
|-------------------|----| 
|-------5-----------|-x2-| 
|-----5---4--4s5----|----| 
|---3---------------|----|         
Queda, un gesto amable  
           Gm-F 
para no hacer la vida 
       F-A#                 A#-D 
insoportable y así ahogar las penas solo eso 
  Gm 
queda 
            Gm-F                    D#-Fm       
Solo quedan las ganas de llorar, al ver que 
          F-A#       A#-D 
nuestro amor se aleja,  
          Gm-F    
frente a frente, bajamos 
      D#-Fm                 F-A# 
la mirada, pues ya no queda nada de que hablar, 
A#-D 
nada.. 

            Gm-F                    D#-Fm       
Solo quedan las ganas de llorar, al ver que 
          F-A#       A#-D 
nuestro amor se aleja,  
          Gm-F    
frente a frente, bajamos 
      D#-Fm                 F-A# 
la mirada, pues ya no queda nada de que hablar, 
A#-D 
nada.. 


|------------------------| 
|------------------------| 
|------------------------| 
|-1-0--------------------| 
|-----3-1----------------| 
|---------3--------------| 

|-----------10-----------| 
|-11--10-11----11-10-11~-| 
|------------------------| 
|------------------------| 
|------------------------| 
|------------------------| 

|-----------11-----------| 
|-11--10-11----11-10~----| 
|------------------------| 
|------------------------| 
|------------------------| 
|------------------------| 

|----18-17---------------| 
|----------18------------| 
|-------------19---------| 
|------------------------| 
|------------------------| 
|------------------------| 

|------------------------| 
|------------------------| 
|------------------------| 
|-1-0--------------------| 
|-----3-1----------------| 
|---------3--------------| 


aqui les dejo los acordes ok 
  Gm  F  A#  D  D# Fm 
|--3--1---1--2---3--1----| 
|--3--1---3--3---4--1----| 
|--3--2---3--2---3--1----| 
|--5--3---3--0---5--3----| 
|--5--3---1------6--3----| 
|--3--1---1------3--1----| 
bueno eso fue todo cualquier correcion es bn resibida junto con sus 
criticas poes fue un trabajo original mio espero que les sirva mucho 
les dejo mi correo nizrcita@hotmail.com y poes bonitha  
cansion pero malos rekuerdos.pero no te me preokupes k kontigo shikis  
no tengo ningun mal rekuerdos bueno ahora si bye bye y poes espero que 
les guste.nizrcita waz here 
  

top cifras enrique bunbury
top cifras rock'n roll
ver mais cifras desse artista var letras desse artista
Top cifras » Top artistas »
Anuncie no Cifras Termos de Uso Política de Privacidade Material de DivulgaçãoFale Conosco
Petaxxon Comunicação Online
Cifras.com.br - Melhor e mais completo site de cifras e tablaturas do Brasil
Mais de 1 milhão de cifras cadastradas desde 2003
As informações contidas no Cifras.com.br são colaborações de seus usuários e podem conter erros, sendo assim, não se responsabiliza sobre nenhuma destas.
R7 Música
close
 
redimensionar