» Cifras.com.br » Letras de músicas » Notícias » TV Cifras » Guitar Pro » Gospel

Tom

Formatação

colunas A+ A- cores

Nível

Avançado

Nível: Avançado

Transcrição

enviada por winclesson


corrigida por Acelot

  
Intro: 

e|------------------------------------------------------| 
B|------0----------0---------------------------------0--| 
G|------0----------0--------2------------2-----------0--| 
D|------2----------2--------2------------1-----------2--| 
A|------2----------2---------------2----------2------2--| 
E|---0------0---3-----3---2----2------------------0-----| 

e|----------------------------------------| 
B|------------0---------------------------| 
G|------------0---------------------------| 
D|------------2---------------------------| 
A|------------2----2--1--2--3--2--0-------| 
E|---0---3---------------------------3--2-| 

e|------------------------------------------------------| 
B|------0----------0---------------------------------0--| 
G|------0----------0--------2------------2-----------0--| 
D|------2----------2--------2------------1-----------2--| 
A|------2----------2---------------2----------2------2--| 
E|---0------0---3---------2----2------------------0-----| 

e|--------------------------------| 
B|----------------0------1-----1--| 
G|----------------0------2-----2--| 
D|----------------2------1-----1--| 
A|----------------2------2-----2--| 
E|-----0-----3--------------------| 

Tema 

Parte 1: 

e|--------------------7---------------5------------------3-| 
B|--------------------0---------------4------------------0-| 
G|---4--3--2-------0--------------4------------------0-----| 
D|-------------5-----------5--4-------------4----2---------| 
A|---------------------------------------------------------| 
E|---------------------------------------------------------| 

e|--------------1------------------------------------------------| 
B|--------------0-------------1-------------------3------------1-| 
G|----------2-----------------0-------------------1------------2-| 
D|---2--0-----------0------2-------------------2---------------2-| 
A|----------------------3--------------3---2-----------2---0-----| 
E|---------------------------------------------------------------| 

e|---------------------------0-------------0----------------5-| 
B|---------------------------0-------------0----------------5-| 
G|------------------------5-------------5----------------5----| 
D|------------0--2----7---------7---5----------5----4---------| 
A|---0--2--3--------------------------------------------------| 
E|------------------------------------------------------------| 

e|-------------3---------2-----2-----------------2p0---3p0-----| 
B|-------------2---------1-----1---------8-------------------0-| 
G|----------3------------2-----2------------8------------------| 
D|---4--2-----------2----1-----1------9------------------------| 
A|-------------------------------------------------------------| 
E|-----------------------------------------------0-------------| 

e|---------------------7--------------5------------------3---| 
B|--0----------------0----------------4------------------0---| 
G|------2--4---5--0--------------4------------------0--------| 
D|-------------------------5--4------------4----2------------| 
A|-----------------------------------------------------------| 
E|-----------------------------------------------------------| 

e|--------------1------------------------------------------------| 
B|--------------0-------------1-------------------3------------1-| 
G|----------2-----------------0-------------------1------------2-| 
D|---2--0-----------0------2-------------------2-----------2---2-| 
A|----------------------3--------------3---2-----------0---------| 
E|---------------------------------------------------------------| 

e|--------------------------------------3-------------2---0-| 
B|-------------1--------------1---0-----4----4--------2---0-| 
G|-------------0--------------2---2-----2----2--------------| 
D|----------2-----------------2---2-------------------------| 
A|--0-----------------------------------3-------------------| 
E|-----3-----------3------2----------------------0----------| 

e|---------------------------------2------------0-| 
B|------3----1-------1---0---------0---0--------0-| 
G|------2----2-------0---0---------2---2--------0-| 
D|------1----1-------2---2----------------------2-| 
A|-------------------2---2------2---------------2-| 
E|---1------------0-----------------------------0-| 

Parte 2: 

e|--------7---5------7---5----------5---3------5----3-| 
B|--------5---5------5---5----------3---3------3----3-| 
G|--------5---5------5---5----------4---4------4----4-| 
D|----0-----------0------------0------------0---------| 
A|----------------------------------------------------| 
E|----------------------------------------------------| 

e|--------12---10--------12----10---------12-----10-| 
B|--------10---10--------10----10---------10-----10-| 
G|--------11---11--------11----11---------10-----10-| 
D|----0--------------0--------------0---------------| 
A|--------------------------------------------------| 
E|--------------------------------------------------| 


e|-------12---10----------10----8-----------7-----5-| 
B|-------10---10-----------8----8-----------7-----7-| 
G|---0---------------------9----9-----------5-----5-| 
D|--------------------10----------------------------| 
A|--------------------------------------6-----------| 
E|--------------------------------------------------| 

e|-------5---3---------0--0----------------------------------| 
B|-------3---3----7----------3--2---1---0------0-------------| 
G|-------4---4----6------------------------2------2--0-------| 
D|----------------5-------------------------------------2--0-| 
A|------------------------0----------------------------------| 
E|----3--------6-------------------2-----------3-------------| 

Parte 3: 

e|--------------------------------------------------------| 
B|---3---3---3---3----3----3---3---3--3---3-------3--3--3-| 
G|---------------4----4---------------5---5---------------| 
D|---------------3----3---------------4---4---------------| 
A|--------------------------------------------------------| 
E|---------------4----4---------------5---5---------------| 

e|---2--------2---0-----------0-----------| 
B|---------3----------3------------3----3-| 
G|------2----------------2---------4----4-| 
D|---0-----------------------------2----2-| 
A|----------------------------------------| 
E|---------------2-----------------3----3-| 

e|-------------------------------------------------------------| 
B|---3---3---3---3-----3----3---3---3--3-----3---------3--3--3-| 
G|---------------4---4-4---------------5---5-5-----------------| 
D|---------------3-3---3---------------4-4---4-----------------| 
A|-------------------------------------------------------------| 
E|---------------4-----4---------------5-----5-----------------| 

e|---7----------7---5-----------5----5-----------3-| 
B|---7------7---------------7--------3------3----3-| 
G|---5---5---------------5-----------4---4-------4-| 
D|-------------------------------------------------| 
A|---5--------------5------------------------------| 
E|-----------------------------------3-------------| 

e|---7--7--7--8---------8---7------------7---7--------7--5-| 
B|------------6------6------6-------6--------5-----5-----5-| 
G|------------7---7---------7----7-----------5--5--------5-| 
D|------------6-------------6----------------5-----------5-| 
A|---------------------------------------------------------| 
E|---------------------------------------------------------| 

e|---5--5--5---7---------------7------5-------------------5--------3--| 
B|-------------7----7------7----------4----4-------4------0---0----0--| 
G|-------------8--------8-------------5-------5-----------0-----0--0--| 
D|------------------------------------4-------------------------------| 
A|-------------9------------------------------------------------------| 
E|--------------------------------------------------------0--------0--| 

e|--3--3--3----2-----------------0---------0---0----------| 
B|-------------2---2------2------2---2------------------3-| 
G|-------------3-------3---------3------3------2--------2-| 
D|---------------------------------------------4--------4-| 
A|-------------4-----------------1-------------2--------2-| 
E|--------------------------------------------------------| 

e|---------------------------------------------------| 
B|---0--0--0--0-------------------5--5--5---5-----3--| 
G|------------------2-----2-----------------4---4-4--| 
D|---------------------2--------------------2-2---2--| 
A|------------4-----------------------------3-----3--| 
E|---------------------------------------------------| 

e|-------------------------------------------------------------| 
B|---3---3---3---3-----3----3---3---3--3-----3---------3--3--3-| 
G|---------------4---4-4---------------5---5-5-----------------| 
D|---------------3-3---3---------------4-4---4-----------------| 
A|-------------------------------------------------------------| 
E|---------------4-----4---------------5-----5-----------------| 

e|---2--------2---0-----------0-------------| 
B|---------3----------3------------3------3-| 
G|------2----------------2---------4----4-4-| 
D|---0-----------------------------2-2----2-| 
A|------------------------------------------| 
E|---------------2-----------------3------3-| 

e|-------------------------------------------------------------| 
B|---3---3---3---3-----3----3---3---3--3-----3---------3--3--3-| 
G|---------------4---4-4---------------5---5-5-----------------| 
D|---------------3-3---3---------------4-4---4-----------------| 
A|-------------------------------------------------------------| 
E|---------------4-----4---------------5-----5-----------------| 

e|---7----------7---5-----------5----5-----------3-| 
B|---7------7---------------7--------3------3----3-| 
G|---5---5---------------5-----------4---4-------4-| 
D|-------------------------------------------------| 
A|---5--------------5------------------------------| 
E|-----------------------------------3-------------| 

e|---7--7--7--8---------8---7------------7---7--------7--5-| 
B|------------6------6------6-------6--------5-----5-----5-| 
G|------------7---7---------7----7-----------5--5--------5-| 
D|------------6-------------6----------------5-----------5-| 
A|---------------------------------------------------------| 
E|---------------------------------------------------------| 

e|---5--5--5---7---------------7------5-------------------5--------3--| 
B|-------------7----7------7----------4----4-------4------0---0----0--| 
G|-------------8--------8-------------5-------5-----------0-----0--0--| 
D|------------------------------------4-------------------------------| 
A|-------------9------------------------------------------------------| 
E|--------------------------------------------------------0--------0--| 

e|--3--3--3----2-----------------0---------0---0-----| 
B|-------------2---2------2------2---2---------------| 
G|-------------3-------3---------3------3------2-----| 
D|---------------------------------------------4-----| 
A|-------------4-----------------1-------------2-----| 
E|---------------------------------------------------| 

e|---------------2--0-------------------------------| 
B|--------0---3-----------0--3--1--0-------0--------| 
G|-----0---------------------------------------2--0-| 
D|---0----------------------------------4-----------| 
A|--------------------------------------------------| 
E|------------------------------------------------3-| 





  

top cifras ernesto nazareth
top cifras mpb
ver mais cifras desse artista var letras desse artista
Top cifras » Top artistas »
Anuncie no Cifras Termos de Uso Política de Privacidade Material de DivulgaçãoFale Conosco
Petaxxon Comunicação Online
Cifras.com.br - Melhor e mais completo site de cifras e tablaturas do Brasil
Mais de 1 milhão de cifras cadastradas desde 2003
As informações contidas no Cifras.com.br são colaborações de seus usuários e podem conter erros, sendo assim, não se responsabiliza sobre nenhuma destas.
R7 Música
close
 
redimensionar