» Cifras.com.br » Letras de músicas » Notícias » TV Cifras » Guitar Pro » Gospel
Logo Cifras.com.br

Início » Gospel » Fernanda Brum »

Vem me consolar (solos)

Fernanda Brum

Fernanda Brum
Vem me consolar (solos)

Escute esta músicas

Tom

Formatação

colunas A+ A- cores

Instrumento

cifras tablaturaver outros instrumentos

Nível

Iniciante

Nível: Iniciante

Transcrição

enviada por hfilho


  Intro: 
E---------------------------5--7--8--7--5-----7--5--3--3--7--5--3-3-- 
B---5--7--8--3--5--5--7--8--------------------------------------3-3-- 
G----0--0--0--0-----0--0--0--0-----0--0---7-5-----------0--0--------- 
D---------------------------4--5--7--5--4-----5---------------------- 
A---3--5--7--2--3--3--5--7-----------------------2--3--3--7--5------- 
E---------------------------------------------------------------3-3-- 
 
1ªvez (introdução)  
  
2ªvez (G D/F#  Em7/9  C G/B Am7 D)  
SOLO do violão e do contra-baixo em Em7/9  
Galera não sei se tá certo, mas tá aí pra vcs...	  
E----------5--3-------  
A-2-^-5--2------3-----                                
  
 
Final: 
                             
E--8--7--5----7--5--3--3--7--5--3-3-- 
B-------------------------------3-3-- 
G---0--0--7-5-----------0--0----0-0-- 
D--7--5--4----5-----------------0-0-- 
A----------------2--3--3--7--5--2-2-- 
E-------------------------------3-3-- 

  

top cifras fernanda brum
top cifras gospel
ver mais cifras desse artista

letras do(a) Fernanda Brum

Top cifras » Top artistas »
Anuncie no Cifras Termos de Uso Política de Privacidade Material de DivulgaçãoFale Conosco
Petaxxon Comunicação Online
Cifras.com.br - Melhor e mais completo site de cifras e tablaturas do Brasil
Mais de 1 milhão de cifras cadastradas desde 2003
As informações contidas no Cifras.com.br são colaborações de seus usuários e podem conter erros, sendo assim, não se responsabiliza sobre nenhuma destas.
R7 Música
close
 
redimensionar