Cifras e Tablaturas
Guns N' Roses

Guns N' Roses

Patience Tablatura

Cifras Cancelar Versão de Impressão
cifras

Guns N' Roses - Patience

fixar na tela  
Exibindo: vídeo-aula ver clipes redimensionar

Tom:

  
e|--8-7-8---8/10---8------------8-7-8---8/10---10/12----8-7-8---8/10---8-|  
B|------------------10/12---8--------------------------------------------|  
G|-----------------------------------------------------------------------|  
D|-----------------------------------------------------------------------|  
A|-----------------------------------------------------------------------|  
E|-----------------------------------------------------------------------|  

e|------------------10/12--10-10-12/14--12-10-10-------------------------|
B|-10/12--10--8-8-8---------------------------------5-8------------------|  
G|-------------------------------------------------7-------7-5-7----4-7--|  
D|----------------------------------------------------------------7------|  
A|-----------------------------------------------------------------------|  
E|-----------------------------------------------------------------------|  

e|-----------------------------------------------------------------------|  
B|--------5-8---------8-10--8--10-8-10---8--10-8-10---8--10/12--8-8------|  
G|------7-----7-5-7/9-------9------------9-----------9-------------------|  
D|-7-5-------------------------------------------------------------------|  
A|-----------------------------------------------------------------------|  
E|-----------------------------------------------------------------------|  

  

top 5 | guns n' roses
top rock'n roll
Outras músicas do artista letras do(a) Guns N' Roses
Top cifras »Top artistas »
Petaxxon Comunicação Online
Cifras.com.br - Melhor e mais completo site de cifras e tablaturas do Brasil
Mais de 1 milhão de acordes de músicas cadastradas desde 2003
As informações contidas no nosso site são colaborações de seus usuários e podem conter erros, sendo assim, não nos responsabilizamos sobre nenhuma destas.
close
menos
mais
close
Cor dos acordes:

Cor da letra:

 

save
close
close
 
redimensionar