» Cifras.com.br » Letras de músicas » Notícias » TV Cifras » Guitar Pro » Gospel

Início » Rock'n Roll » Guns N' Roses » »

Sweet child o´mine (solo violão,guitarra,real)

Guns N' Roses

Sweet child o´mine (solo violão,guitarra,real)

Guns N' Roses Escute esta e outras músicas enquanto navega no Cifras

Autor:

Tom

Formatação

colunas A+ A- cores

Instrumento

cifras tablaturaver outros instrumentos

Nível

Iniciante

Nível: Iniciante

Transcrição

enviada por Derson #


  andei olhando os solos da introdução e reparei que estão todos errados 
mas nínguem percebe para melhorar eu escutei o cd tirei  
e comparei não tem nada a ver com os que eu olhei e a  
versão verdadeira é essa 
  
    D  repete 2x                 C  repete 2x 
 
e /--------------15----14-----||--------------15----14-----|| 
b /----15---------------------||----15---------------------|| 
g /-------14-12-----14----14-°||-------14-12-----14----14-°|| 
D /-12-----------------------°||-14-----------------------°|| 
A /---------------------------||---------------------------|| 
E /---------------------------||---------------------------|| 
 
    G  repete 2x                   D  repete 2x 
e /---------------15------14----||--------------15----14-----|| 
b /-----15----------------------||----15---------------------|| 
g /-12-----14-13------14-----14°||-------14-12-----14----14-°|| 
D /----------------------------°||-12-----------------------°|| 
A /-----------------------------||---------------------------|| 
E /-----------------------------||---------------------------|| 
   
preste atenção no final na última parte vc vai tudo de novo 
vc vai fazer toda a introdução chegando no final vc junta 
a 4°parte com a primeira que é a mesma coisa que repetir 4x 
faça a última parte e depois faça a primeira e toque o restante 
repita todo o solo 6x e depois faça este final 
 
e /-12--10-12--r14--r15--r14--r12--r10------------------ 
b /---------------------------------------9/11r---------  
g /---------------------------------------8/10r--------- 
D /----------------------------------------------------- 
A /----------------------------------------------------- 
E /----------------------------------------------------- 

  

top cifras guns n' roses
top cifras rock'n roll
ver mais cifras desse artista var letras desse artista
Top cifras » Top artistas »
Anuncie no Cifras Termos de Uso Política de Privacidade Material de DivulgaçãoFale Conosco
Petaxxon Comunicação Online
Cifras.com.br - Melhor e mais completo site de cifras e tablaturas do Brasil
Mais de 1 milhão de cifras cadastradas desde 2003
As informações contidas no Cifras.com.br são colaborações de seus usuários e podem conter erros, sendo assim, não se responsabiliza sobre nenhuma destas.
R7 Música
close
 
redimensionar