» Cifras.com.br » Letras de músicas » Notícias » TV Cifras » Guitar Pro » Gospel

Início » Gospel » Harpa Cristã » »

Uma Flor Gloriosa

Harpa Cristã

Uma Flor Gloriosa

Harpa Cristã Escute esta e outras músicas enquanto navega no Cifras

Autor:

Tom

Formatação

colunas A+ A- cores

Instrumento

cifras tablaturaver outros instrumentos

Nível

Iniciante

Nível: Iniciante

Transcrição

enviada por aman_claudino


  E|---------------0-5--0-0-5-0-|----------------7--5-3-5---| 
B|-----------------5--8---5-8-|-6-3------3-5-6----6-5-6-6-| 
G|-------------7-0-0--0-0-0-0-|-7-4---------------------7-| 
D|----------10-0--------------|-3-3------3-3-3-3--3-3-3-3-| 
A|----------7--8--------------|---------------------------| 
E|----------8----8-8--8-8-8-8-|-3-3------3-3-3-3--3-3-3-3-| 

E|----------------5--0---5-0-|----------------7-5-3-5-7-| 
B|-5------------5-5--8-5-5-8-|-6-3------3-5-6---6-5-6-8-| 
G|-5--------5-7-0-0--0-0-0-0-|-7-4----------------------| 
D|-5----------0--------------|-3-3------3-3-3-3-3-3-3---| 
A|----------7-8--------------|------------------------8-| 
E|-8--------8---8-8--8-8-8-8-|-3-3------3-3-3-3-3-7-7-7-| 

E|-8-----------------12-10-8-10-8-|-7-5--------0---7-5-3-5---| 
B|-------------------8--8--8-8--8-|-6-6------3---6-6-6-6-6-6-| 
G|-9--------9--10-12--------------|--------------------------| 
D|--------------------------------|-3-0----------0-0-0-0-0-0-| 
A|-10-------10----7-----7--7-7--7-|-----2-2------------------| 
E|-8--------8-----8--8--8--8-8--8-|-------3------3-3-3-3-3-3-| 

E|--------------3-12-10-8-10-8-|---5------5-5-3-3-3----5-7-| 
B|-5--------5-6---8--8--8-8--8-|------------6-5-5-5-15-6-6-| 
G|-0--------0-0----------------|---------------------------| 
D|--------------2--------------|---0------0------------0-0-| 
A|-3--------3-3-3----7--7-7--7-|--------------7-7-7--------| 
E|----------------8--8--8-8--8-|-1-1------1---3-3-3----3-3-| 

E|-0--------------0-0---0-0-0--0-|----------------7--5-3-5---| 
B|-13---------------10--8---10-8-|-6--------3-5-6----6-5-6-6-| 
G|-0--------0--0--0-0---0-0-0--0-|-7-----------------------7-| 
D|----------10-12----------------|-3--------3-3-3-3--3-3-3-3-| 
A|-------------------------------|---------------------------| 
E|-8--------8--8--8-8---8-8-8--8-|-3--------3-3-3-3--3-3-3-3-| 

E|-----------------12-10-8-10-8-|---5------5-5-3-3-3----5-7-| 
B|-5--------5-6----8--8--8-8--8-|------------6-5-5-5-15-6-6-| 
G|-5------------12--------------|---------------------------| 
D|-5----------------------------|---0------0------------0-0-| 
A|--------------7-----7--7-7--7-|--------------7-7-7--------| 
E|-8--------8-8-8--8--8--8-8--8-|-1-1------1---3-3-3----3-3-| 

E|-0--------------------| 
B|-13-------------------| 
G|-0--------------------| 
D|----------------------| 
A|----------------------| 
E|-8--------------------| 
  

top cifras harpa cristã
top cifras gospel
ver mais cifras desse artista var letras desse artista
Top cifras » Top artistas »
Anuncie no Cifras Termos de Uso Política de Privacidade Material de DivulgaçãoFale Conosco
Petaxxon Comunicação Online
Cifras.com.br - Melhor e mais completo site de cifras e tablaturas do Brasil
Mais de 1 milhão de cifras cadastradas desde 2003
As informações contidas no Cifras.com.br são colaborações de seus usuários e podem conter erros, sendo assim, não se responsabiliza sobre nenhuma destas.
R7 Música
close
 
redimensionar