» Cifras.com.br » Letras de músicas » Notícias » TV Cifras » Guitar Pro » Gospel

Início » Hinos » Hinos » »

Hino do Santos

Hinos

Hino do Santos

Hinos Escute esta e outras músicas enquanto navega no Cifras

Autor:

Tom

Formatação

colunas A+ A- cores

Nível

Iniciante

Nível: Iniciante

Transcrição

enviada por marceloktetzner


  e-----------------------------------------------------------------------------------------6----10----8----------------------------------- 
B--------------------6----10----8-----------------------------------------8----10-------------------------10----7---------10----8 
G-------7----9-----------------------9-----6-------------9----7----7-------------------------------------------------7-------------- 
D-7------------------------------------------------7--- 
 
  a    go   ra     quem    da   bo  la     é       o    San  tos.  O     San   tos        é     o    no   vo   cam   pe    ã   ão 
 
 
 
e---8-----6-----8-----6---------------8---6---8---6-----------------------------------------------7----10----13----13----10---10---9 
B-----------------------------8-----------------------10-------------------------------7--- 9 
G----------------------------------7------------------------------------10----7----9 
   Glo   ri     o     so      al   vi ne gro prai a   no                cam   pe   ão  a    b    so    lu    to    des   te   a   no 
 
 
 
e----12---12---8---10---12 
B----------------------------11---11----10----11----8------8--------------8---10 
G--------------------------------------------------------------9---10--- 
     San  tos  San tos sem   pre  San   tos  Den  troou   fo   ra  doal  ça   pão   
 
 
 
 
e----------------------------10-------------------------10---12----9------------13---12---10 
B-----------------------11--------------------------11-----------------10---10 
G---12---11---11---12-------------12---10---9---10 
    Jo   que  o   que   jo  gar   és   o   le  ão   do mar   sal  veo  no   vo cam   pe   ão 
 

  

Conseguiu tocar essa música? Ficou legal? Então, mostre para todo mundo no Você Canta, receba notas e comentários. Cante agora

Top cifras » Top artistas »
Anuncie no Cifras Termos de Uso Política de Privacidade Material de DivulgaçãoFale Conosco
Petaxxon
Cifras.com.br - Melhor e mais completo site de cifras e tablaturas do Brasil
Mais de 1 milhão de cifras cadastradas desde 2003
As informações contidas no Cifras.com.br são colaborações de seus usuários e podem conter erros, sendo assim, não se responsabiliza sobre nenhuma destas.
R7 Música
close
 
redimensionar