» Cifras.com.br » Letras de músicas » Notícias » TV Cifras » Guitar Pro » Gospel

Início » Heavy Metal » Iron Maiden » »

2 Minutes To Midnigth

Iron Maiden

2 Minutes To Midnigth

Iron Maiden Escute esta e outras músicas enquanto navega no Cifras

Autor:

Tom

Formatação

colunas A+ A- cores

Instrumento

cifras tablaturaver outros instrumentos

Nível

Iniciante

Nível: Iniciante

Transcrição

enviada por Corral Urias


  efectos:  
v:vibracion  
  
INTRO  
1.-----------------------------------------------------  
2.--------------------------7v-------------------------  
3.-----5-----7-----5-----7--7v-----5------7-----5-----2  
4.-----5-----7-----5-----7---------5------7-----5-----2  
5.-0-0---0-0---0-0---0-0-------0-0----0-0---0-0---0-0-0  
6.-----------------------------------------------------  
  
1.-----------------------------------------------------  
2.-----------------------------------------------------  
3.-----5-----7-----5-----7-7v------5-----7-----5-----2-  
4.-----5-----7-----5-----7-7v------5-----7-----5-----2-  
5.-0-0---0-0---0-0---0-0-------0-0---0-0---0-0---0-0---  
6.-----------------------------------------------------  
  
1.--------------------------------------------  
2.--------------------------------------------  
3.-----5-----7-----5---7-7--7------5-----7----  
4.-----5-----7-----5---7-7--7------5-----7----  
5.-0-0---0-0---0-0-------------5-5---5-5------  
6.--------------------------------------------  
  
  


  

top cifras iron maiden
top cifras heavy metal
ver mais cifras desse artista var letras desse artista
Top cifras » Top artistas »
Anuncie no Cifras Termos de Uso Política de Privacidade Material de DivulgaçãoFale Conosco
Petaxxon Comunicação Online
Cifras.com.br - Melhor e mais completo site de cifras e tablaturas do Brasil
Mais de 1 milhão de cifras cadastradas desde 2003
As informações contidas no Cifras.com.br são colaborações de seus usuários e podem conter erros, sendo assim, não se responsabiliza sobre nenhuma destas.
R7 Música
close
 
redimensionar