» Cifras.com.br » Letras de músicas » Notícias » TV Cifras » Guitar Pro » Gospel
Logo Cifras.com.br

Início » Heavy Metal » Iron Maiden » Route 666 »

Fear of the Dark

Iron Maiden

Fear of the Dark

Iron Maiden Escute esta e outras músicas enquanto navega no Cifras

Ano: 1992 - Album: Route 666

Autor: (Iron Maiden)

Formatação

colunas A+ A- cores

Nível

Expert

Nível: Expert

Transcrição

enviada por Acelot


  

Intro: 1ª parte guitar 1   


 e|-------------------------------------------------------------|   
 B|-----------5-5-6-6-5-5-----5-5-----------------5-5---------5-|   
 G|7-7----7-7-------------7-7-----5-5-----5-5-7-7-----7-7-5-5--5|   
 D|----7-7----------------------------5-5-----------------------|   
 A|-------------------------------------------------------------|                            
 E|-------------------------------------------------------------|   
                                                                                              

 e|-------------------------------------------------------------|   
 B|-------------------------------------------------------------|                               
 G|-------------------------------------------------------------|                            
 D|--7-7-----7-7-9-9-10-10-9-9-7-7-9-9-5-5-----5-5-7-7-9-9-7-7--|         
 A|------7-7-------------------------------5-5------------------|   
 E|-------------------------------------------------------------|   



 e|-------------------------------------------------------------|   
 B|-------------------------------------------------------------|   
 G|-------------------------------------------------------------|   
 D|--5-5-9-5-7-7-----7-7-9-9-10-10-9-9-7-7-9-9-3-3-----3-3-5-5--|   
 A|--------------7-7-------------------------------3-3----------|   
 E|-------------------------------------------------------------|   



 e|-------------------------------------------------------------|   
 B|-------------------------------------------------------------|   
 G|--2-2---------2----------------------------------------------|   
 D|------5-5-3-3---3--------------------------------------------|   
 A|-------------------------------------------------------------|   
 E|-------------------------------------------------------------|   


    


Intro: 1ª parte guitar 2   




 e|-------------------------------------------------------------|   
 B|-------------------------------------------------------------|   
 G|-------------------------------------------------------------|   
 D|-------------------------------------------------------------|   
 A|5-5---5-5-7-7-8-8-7-7-5-5-7-7-3-3-----3-3-5-5-7-7-5-5-3-3-7-3|   
 E|---5-5----------------------------3-3------------------------|   




 e|-------------------------------------------------------------|   
 B|-------------------------------------------------------------|   
 G|-------------------------------------------------------------|   
 D|---------------------------------5-5-----5-5-7-7-9-9-7-7-5-5-|   
 A|-0-0-----0-0-2-2-3-3-2-2-0-0-2-2-----5-5---------------------|   
 E|-----0-0-----------------------------------------------------|   




 e|-------------------------------------------------------------|   
 B|-------------------------------------------------------------|   
 G|----------------------------------------------2-2----------2-|   
 D|9-5-----------------------------3-3---3-3-5-5------5-5-3-3---|   
 A|---0-0---0-0-2-2-3-3-2-2-0-0-2-2---3-3----------------------3|   
 E|------0-0----------------------------------------------------|   





Intro:2ª Parte   



 e|-------------------------------------------------------------|   
 B|-----5-6-8-6-5---------------6-------5-6-8-6-5---------------|   
 G|---7-----------5---5---3-5-5---7---7-----------5-------------|   
 D|-7---------------5---5-----------7---------------------------|   
 A|-------------------------------------------------------------|   
 E|-------------------------------------------------------------|   


Base Verso   


 e|-------------------------------------------------------------|   
 B|-------------------------------------------------------------|   
 G|-------------------------------------------------------------|   
 D|----7---7---7---7---3---3---3---3---5---5---5---5---3---3----|   
 A|--5---5---5---5---1---1---1---1---3---3---3---3---1---1------|   
 E|-------------------------------------------------------------|   



 e|-------------------------------------------------------------|   
 B|-------------------------------------------------------------|   
 G|-------------------------------------------------------------|   
 D|----5---5---7---7---7---7---3---3---3---3---5---5---5---5----|   
 A|--3---3---5---5---5---5---1---1---1---1---3---3---3---3------|   
 E|-------------------------------------------------------------|   

     

    


frase 3 do Refrão   

 e|-------------------------------------------------------------|   
 B|-------------------------------------------------------------|   
 G|-------------------------------------------------------------|   
 D|------7-7-5-5-7-7----7-7-5-5-7----7-7-5-5-7-7-----7-7-5-5-7--|   
 A|--5-5------------5-5----------5-5-------------5-5------------|   
 E|-------------------------------------------------------------|   





 e|-------------------------------------------------------------|   
 B|-------------------------------------------------------------|   
 G|-------------------------------------------------------------|   
 D|-----7-7-5-5-7-7-----7-7-5-5-7---------------------5-5-------|   
 A|-5-5-------------5-5-----------5-5-----5-5-7-7-8-8----8-8-7--|   
 E|-----------------------------------5-5-----------------------|    


Base 2º verso e 2º Refrão   



 e|-------------------------------------------------------------|   
 B|-------------------------------------------------------------|   
 G|-------------------------------------------------------------|   
 D|-7-----7-----3-----3-----5-----5-----7-----7-----------------|   
 A|-5-----5-----1-----1-----3-----3-----5-----5-----------------|   
 E|-------------------------------------------------------------|   


Base 3º Refrão    


 e|-------------------------------------------------------------|   
 B|-------------------------------------------------------------|   
 G|-------------------------------------------------------------|   
 D|-3-----------5-----------7-----------5-----------3-----------|   
 A|-1-1-1-1-1-1-3-3-3-3-3-3-5-5-5-5-5-5-3-3-3-3-3-3-1-1-1-1-1-1-|   
 E|-------------------------------------------------------------|   



 e|-------------------------------------------------------------|   
 B|-------------------------------------------------------------|   
 G|--5-----7-----5----------------------------------------------|   
 D|--3-3-3-5-5-5-3-3-3-3-3-3------------------------------------|   
 A|-------------------------------------------------------------|   
 E|-------------------------------------------------------------|   




Pré-solo   

    
 e|-------------------------------------------------------------|   
 B|----5-6-5--6p5---------------------------5-6-5--6p5----------|   
 G|--7------------7--7p5------------------7------------7--7p5---|   
 D|----------------------8--8p7-5--7b8r7------------------------|   
 A|-------------------------------------------------------------|   
 E|-------------------------------------------------------------|   



 e|-------------------------------------------------------------|   
 B|------------------------5-6-8-6-5-----5-6-8-6-5--------------|   
 G|-----------5-7---7----7-------------7-----------7p5----------|   
 D|-8--8p7-5------7----7-------------7-----------------7/8--7---|   
 A|-------------------------------------------------------------|   
 E|-------------------------------------------------------------|   



 e|-------------------------------------------------------------|   
 B|-----------5-6-8-6-5-----5-6-8-6-5---------10b11--10---------|   
 G|----7----7-------------7-----------7p5-----------------------|   
 D|--7----7-------------7-----------------7---------------------|   
 A|-------------------------------------------------------------|  
 E|-------------------------------------------------------------|   




Solo 1   


 e|-------------------------------------------10--10----13b15---|   
 B|-13-----13---------------------------------10--10------------|   
 G|-12b14--14r12p10----10-------10--10--12b14-------------------|   
 D|-----------------12----------10--10--------------------------|   
 A|------------------------/12----------------------------------|   
 E|-------------------------------------------------------------|   



 e|-13-12p10----10-----------------------------------15b17--15--|   
 B|----------13----13-11p10--11p10------------------------------|   
 G|--------------------------------12----10--12--10-------------|   
 D|-----------------------------------12------------------------|   
 A|-------------------------------------------------------------|   
 E|-------------------------------------------------------------|   



 e|-113p12--13p12-----------------------13----------------------|   
 B|---------------13----------13--------13----------------------|   
 G|------------------------12----12\10--12b14--14r12p10----10---|   
 D|---------------------14------------------------------12------|   
 A|------------------15-----------------------------------------|   
 E|-------------------------------------------------------------|   



 e|-------------------------------------------------------------|   
 B|-------------------------------------------------------------|   
 G|-------------------------------------------------------------|   
 D|-12p10----10-------------------------------------------------|   
 A|-------12----12p11-10/8--10p8--------------------------------|   
 E|------------------------------10-----------------------------|   



Solo 2   


 e|----17b19--17-16-17-16p14h16p14----16p14---------------------|   
 B|-14-----------------------------17-------17-14----14h17p14---|   
 G|-----------------------------------------------16----------16|   
 D|-------------------------------------------------------------|   
 A|-------------------------------------------------------------|   
 E|-------------------------------------------------------------|   



 e|-------------------------------------------------------------|   
 B|-14h17p14----14h17p14----14---------------------17p14--------|   
 G|----------16----------16----16p14--16p14--16p14-------16p14--|   
 D|-------------------------------------------------------------|   
 A|-------------------------------------------------------------|   
 E|-------------------------------------------------------------|   


 e|---------------16b17r16--14----------------------------------|   
 B|-17b19r17--14---------------17p14----14h17p14----14h17p14----|   
 G|----------------------------------16----------16-------------|   
 D|-------------------------------------------------------------|   
 A|-------------------------------------------------------------|   
 E|-------------------------------------------------------------|   



 e|-------------------------------------------------------------|   
 B|-------------------------------------------------------------|   
 G|--16p14--16p14----------------14--16p14----14--16------------|   
 D|---------------16p14----14p16-----------16-------------------|   
 A|---------------------16--------------------------------------|   
 E|-------------------------------------------------------------|   



 e|--19b21-19--17-16--------------14-16-17-16p14----14----------|   
 B|------------------17--------------------------17----17-15p14-|   
 G|---------------------16\14--16-------------------------------|   
 D|-------------------------------------------------------------|   
 A|-------------------------------------------------------------|   
 E|-------------------------------------------------------------|   



 e|-------------------------------------------------------------|   
 B|-17p14--15p14----14------------------------------------------|   
 G|--------------16----16p14--16p14-------16p14-------14/-------|   
 D|---------------------------------16p14-------16-14-----------|   
 A|-------------------------------------------------------------|   
 E|-------------------------------------------------------------|   


 e|-------------------------------------------------------------|   
 B|-------------------------------------------------------------|   
 G|-18h20p18h20p18-----16h18p16h18p16------14h16p14h16p14-------|   
 D|-------------------------------------------------------------|   
 A|-------------------------------------------------------------|   
 E|-------------------------------------------------------------|   



 e|-------------------------------------------------------------|   
 B|------------------------14-19--14----------14-19-------------|   
 G|--13h14p13h14p13-----14-----------14----14-------------------|   
 D|------------------16-----------------16----------------------|   
 A|-------------------------------------------------------------|   
 E|-------------------------------------------------------------|   



Base do solo 1 e 2     



 e|-------------------------------------------------------------|   
 B|-------------------------------------------------------------|   
 G|-------------------------------------------------------------|   
 D|-7-----------7-----------3-----------5-----------5-----------|   
 A|-5-5-5-5-5-5-5-5-5-5-5-5-1-1-1-1-1-1-3-3-3-3-3-3-3-3-3-3-3-3-|   
 E|-------------------------------------------------------------|   



 e|-------------------------------------------------------------|   
 B|-------------------------------------------------------------|   
 G|-------------------------------------------------------------|   
 D|--7-----------7----------------------------------------------|   
 A|--5-5-5-5-5-5-5-5-5-5-5-5------------------------------------|   
 E|-------------------------------------------------------------|   





Solo 3   



    

 e|--------5-----------5----------------------------------------|   
 B|----------6-8---------6-8-6-------6-3-5-------6-3-5----------|   
 G|--7-7-7-------7-7-7---------3-3-3-------3-3-3-------5--------|   
 D|-------------------------------------------------------------|   
 A|-------------------------------------------------------------|   
 E|-------------------------------------------------------------|   



 e|-------------------------------------------------------------|   
 A|--------------------6---5------------------------------------|   
 G|--------7---5---------7---5---7---7-5---5-7---7-5---5--------|   
 D|--5-5-5---6---7-7-7---------7---7-----7-----7-----7----------|   
 A|-------------------------------------------------------------|   
 E|-------------------------------------------------------------|  
  

top cifras iron maiden
top cifras heavy metal
ver mais cifras desse artista var letras desse artista
Top cifras » Top artistas »
Anuncie no Cifras Termos de Uso Política de Privacidade Material de DivulgaçãoFale Conosco
Petaxxon Comunicação Online
Cifras.com.br - Melhor e mais completo site de cifras e tablaturas do Brasil
Mais de 1 milhão de cifras cadastradas desde 2003
As informações contidas no Cifras.com.br são colaborações de seus usuários e podem conter erros, sendo assim, não se responsabiliza sobre nenhuma destas.
R7 Música
close
 
redimensionar